  0
SECTION
  2
HEADER
  9
$ACADVER
  1
AC1015
  9
$ACADMAINTVER
 70
     6
  9
$DWGCODEPAGE
  3
ANSI_1252
  9
$INSBASE
 10
0.0
 20
0.0
 30
0.0
  9
$EXTMIN
 10
-840.0
 20
-400.0
 30
0.0
  9
$EXTMAX
 10
840.0
 20
400.0
 30
0.0
  9
$LIMMIN
 10
0.0
 20
0.0
  9
$LIMMAX
 10
420.0
 20
297.0
  9
$ORTHOMODE
 70
     0
  9
$REGENMODE
 70
     1
  9
$FILLMODE
 70
     1
  9
$QTEXTMODE
 70
     0
  9
$MIRRTEXT
 70
     1
  9
$LTSCALE
 40
1.0
  9
$ATTMODE
 70
     1
  9
$TEXTSIZE
 40
3.5
  9
$TRACEWID
 40
1.0
  9
$TEXTSTYLE
  7
Standard
  9
$CLAYER
  8
0
  9
$CELTYPE
  6
ByLayer
  9
$CECOLOR
 62
   256
  9
$CELTSCALE
 40
1.0
  9
$DISPSILH
 70
     0
  9
$DIMSCALE
 40
1.0
  9
$DIMASZ
 40
3.302
  9
$DIMEXO
 40
1.0
  9
$DIMDLI
 40
3.75
  9
$DIMRND
 40
0.0
  9
$DIMDLE
 40
0.0
  9
$DIMEXE
 40
1.0
  9
$DIMTP
 40
0.0
  9
$DIMTM
 40
0.0
  9
$DIMTXT
 40
3.5
  9
$DIMCEN
 40
2.5
  9
$DIMTSZ
 40
0.0
  9
$DIMTOL
 70
     0
  9
$DIMLIM
 70
     0
  9
$DIMTIH
 70
     1
  9
$DIMTOH
 70
     1
  9
$DIMSE1
 70
     0
  9
$DIMSE2
 70
     0
  9
$DIMTAD
 70
     1
  9
$DIMZIN
 70
     1
  9
$DIMBLK
  1

  9
$DIMASO
 70
     1
  9
$DIMSHO
 70
     1
  9
$DIMPOST
  1

  9
$DIMAPOST
  1

  9
$DIMALT
 70
     0
  9
$DIMALTD
 70
     3
  9
$DIMALTF
 40
0.0393700787
  9
$DIMLFAC
 40
1.0
  9
$DIMTOFL
 70
     1
  9
$DIMTVP
 40
0.0
  9
$DIMTIX
 70
     0
  9
$DIMSOXD
 70
     0
  9
$DIMSAH
 70
     0
  9
$DIMBLK1
  1

  9
$DIMBLK2
  1

  9
$DIMSTYLE
  2
ISO-25
  9
$DIMCLRD
 70
     0
  9
$DIMCLRE
 70
     0
  9
$DIMCLRT
 70
     0
  9
$DIMTFAC
 40
1.0
  9
$DIMGAP
 40
1.524
  9
$DIMJUST
 70
     0
  9
$DIMSD1
 70
     0
  9
$DIMSD2
 70
     0
  9
$DIMTOLJ
 70
     0
  9
$DIMTZIN
 70
     1
  9
$DIMALTZ
 70
     0
  9
$DIMALTTZ
 70
     0
  9
$DIMUPT
 70
     0
  9
$DIMDEC
 70
     2
  9
$DIMTDEC
 70
     2
  9
$DIMALTU
 70
     2
  9
$DIMALTTD
 70
     3
  9
$DIMTXSTY
  7
Standard
  9
$DIMAUNIT
 70
     0
  9
$DIMADEC
 70
     2
  9
$DIMALTRND
 40
0.0
  9
$DIMAZIN
 70
     0
  9
$DIMDSEP
 70
    44
  9
$DIMATFIT
 70
     3
  9
$DIMFRAC
 70
     0
  9
$DIMLDRBLK
  1

  9
$DIMLUNIT
 70
     2
  9
$DIMLWD
 70
    -2
  9
$DIMLWE
 70
    -2
  9
$DIMTMOVE
 70
     0
  9
$LUNITS
 70
     2
  9
$LUPREC
 70
     2
  9
$SKETCHINC
 40
1.0
  9
$FILLETRAD
 40
10.0
  9
$AUNITS
 70
     0
  9
$AUPREC
 70
     2
  9
$MENU
  1
.
  9
$ELEVATION
 40
0.0
  9
$PELEVATION
 40
0.0
  9
$THICKNESS
 40
0.0
  9
$LIMCHECK
 70
     0
  9
$CHAMFERA
 40
0.0
  9
$CHAMFERB
 40
0.0
  9
$CHAMFERC
 40
0.0
  9
$CHAMFERD
 40
0.0
  9
$SKPOLY
 70
     0
  9
$TDCREATE
 40
2458745.457815787
  9
$TDUCREATE
 40
2458745.41614912
  9
$TDUPDATE
 40
2458745.457904132
  9
$TDUUPDATE
 40
2458745.416237465
  9
$TDINDWG
 40
0.0000000116
  9
$TDUSRTIMER
 40
0.0000000116
  9
$USRTIMER
 70
     1
  9
$ANGBASE
 50
0.0
  9
$ANGDIR
 70
     0
  9
$PDMODE
 70
     0
  9
$PDSIZE
 40
-1.0
  9
$PLINEWID
 40
0.0
  9
$SPLFRAME
 70
     0
  9
$SPLINETYPE
 70
     6
  9
$SPLINESEGS
 70
     8
  9
$HANDSEED
  5
11B
  9
$SURFTAB1
 70
     6
  9
$SURFTAB2
 70
     6
  9
$SURFTYPE
 70
     6
  9
$SURFU
 70
     6
  9
$SURFV
 70
     6
  9
$UCSBASE
  2

  9
$UCSNAME
  2

  9
$UCSORG
 10
0.0
 20
0.0
 30
0.0
  9
$UCSXDIR
 10
1.0
 20
0.0
 30
0.0
  9
$UCSYDIR
 10
0.0
 20
1.0
 30
0.0
  9
$UCSORTHOREF
  2

  9
$UCSORTHOVIEW
 70
     0
  9
$UCSORGTOP
 10
0.0
 20
0.0
 30
0.0
  9
$UCSORGBOTTOM
 10
0.0
 20
0.0
 30
0.0
  9
$UCSORGLEFT
 10
0.0
 20
0.0
 30
0.0
  9
$UCSORGRIGHT
 10
0.0
 20
0.0
 30
0.0
  9
$UCSORGFRONT
 10
0.0
 20
0.0
 30
0.0
  9
$UCSORGBACK
 10
0.0
 20
0.0
 30
0.0
  9
$PUCSBASE
  2

  9
$PUCSNAME
  2

  9
$PUCSORG
 10
0.0
 20
0.0
 30
0.0
  9
$PUCSXDIR
 10
1.0
 20
0.0
 30
0.0
  9
$PUCSYDIR
 10
0.0
 20
1.0
 30
0.0
  9
$PUCSORTHOREF
  2

  9
$PUCSORTHOVIEW
 70
     0
  9
$PUCSORGTOP
 10
0.0
 20
0.0
 30
0.0
  9
$PUCSORGBOTTOM
 10
0.0
 20
0.0
 30
0.0
  9
$PUCSORGLEFT
 10
0.0
 20
0.0
 30
0.0
  9
$PUCSORGRIGHT
 10
0.0
 20
0.0
 30
0.0
  9
$PUCSORGFRONT
 10
0.0
 20
0.0
 30
0.0
  9
$PUCSORGBACK
 10
0.0
 20
0.0
 30
0.0
  9
$USERI1
 70
     0
  9
$USERI2
 70
     0
  9
$USERI3
 70
     0
  9
$USERI4
 70
     0
  9
$USERI5
 70
     0
  9
$USERR1
 40
0.0
  9
$USERR2
 40
0.0
  9
$USERR3
 40
0.0
  9
$USERR4
 40
0.0
  9
$USERR5
 40
0.0
  9
$WORLDVIEW
 70
     1
  9
$SHADEDGE
 70
     3
  9
$SHADEDIF
 70
    70
  9
$TILEMODE
 70
     1
  9
$MAXACTVP
 70
    64
  9
$PINSBASE
 10
0.0
 20
0.0
 30
0.0
  9
$PLIMCHECK
 70
     0
  9
$PEXTMIN
 10
-400.0
 20
-570.0
 30
0.0
  9
$PEXTMAX
 10
400.0
 20
0.0
 30
0.0
  9
$PLIMMIN
 10
-462.2568093385
 20
-593.3463035019
  9
$PLIMMAX
 10
462.2568093385
 20
60.3501945525
  9
$UNITMODE
 70
     0
  9
$VISRETAIN
 70
     1
  9
$PLINEGEN
 70
     0
  9
$PSLTSCALE
 70
     1
  9
$TREEDEPTH
 70
  3020
  9
$CMLSTYLE
  2
Standard
  9
$CMLJUST
 70
     0
  9
$CMLSCALE
 40
20.0
  9
$PROXYGRAPHICS
 70
     1
  9
$MEASUREMENT
 70
     1
  9
$CELWEIGHT
370
    -1
  9
$ENDCAPS
280
     0
  9
$JOINSTYLE
280
     0
  9
$LWDISPLAY
290
     1
  9
$INSUNITS
 70
     4
  9
$HYPERLINKBASE
  1

  9
$STYLESHEET
  1

  9
$XEDIT
290
     1
  9
$CEPSNTYPE
380
     0
  9
$PSTYLEMODE
290
     1
  9
$FINGERPRINTGUID
  2
{55d71330-9141-4200-94ad-3c295c420545}
  9
$VERSIONGUID
  2
{FAEB1C32-E019-11D5-929B-00C0DF256EC4}
  9
$EXTNAMES
290
     1
  9
$PSVPSCALE
 40
0.0
  9
$OLESTARTUP
290
     0
  0
ENDSEC
  0
SECTION
  2
CLASSES
  0
CLASS
  1
ACDBDICTIONARYWDFLT
  2
AcDbDictionaryWithDefault
  3
ObjectDBX Classes
 90
        0
280
     0
281
     0
  0
CLASS
  1
VISUALSTYLE
  2
AcDbVisualStyle
  3
ObjectDBX Classes
 90
     4095
280
     0
281
     0
  0
CLASS
  1
MATERIAL
  2
AcDbMaterial
  3
ObjectDBX Classes
 90
     1153
280
     0
281
     0
  0
CLASS
  1
SCALE
  2
AcDbScale
  3
ObjectDBX Classes
 90
     1153
280
     0
281
     0
  0
CLASS
  1
TABLESTYLE
  2
AcDbTableStyle
  3
ObjectDBX Classes
 90
     4095
280
     0
281
     0
  0
CLASS
  1
MLEADERSTYLE
  2
AcDbMLeaderStyle
  3
ACDB_MLEADERSTYLE_CLASS
 90
     4095
280
     0
281
     0
  0
CLASS
  1
SUN
  2
AcDbSun
  3
SCENEOE
 90
     1153
280
     0
281
     0
  0
CLASS
  1
ACDBPLACEHOLDER
  2
AcDbPlaceHolder
  3
ObjectDBX Classes
 90
        0
280
     0
281
     0
  0
CLASS
  1
LAYOUT
  2
AcDbLayout
  3
ObjectDBX Classes
 90
        0
280
     0
281
     0
  0
ENDSEC
  0
SECTION
  2
TABLES
  0
TABLE
  2
VPORT
  5
8
330
0
100
AcDbSymbolTable
 70
     1
  0
VPORT
  5
29
330
8
100
AcDbSymbolTableRecord
100
AcDbViewportTableRecord
  2
*Active
 70
     0
 10
0.0
 20
0.0
 11
1.0
 21
1.0
 12
0.0
 22
0.0
 13
0.0
 23
0.0
 14
10.0
 24
10.0
 15
10.0
 25
10.0
 16
0.0
 26
0.0
 36
1.0
 17
0.0
 27
0.0
 37
0.0
 40
816.0
 41
2.1
 42
50.0
 43
0.0
 44
0.0
 50
0.0
 51
0.0
 71
     0
 72
   100
 73
     1
 74
     3
 75
     0
 76
     0
 77
     0
 78
     0
281
     0
 65
     1
110
0.0
120
0.0
130
0.0
111
1.0
121
0.0
131
0.0
112
0.0
122
1.0
132
0.0
 79
     0
146
0.0
  0
ENDTAB
  0
TABLE
  2
LTYPE
  5
5
330
0
100
AcDbSymbolTable
 70
     6
  0
LTYPE
  5
14
330
5
100
AcDbSymbolTableRecord
100
AcDbLinetypeTableRecord
  2
ByBlock
 70
     0
  3

 72
    65
 73
     0
 40
0.0
  0
LTYPE
  5
15
330
5
100
AcDbSymbolTableRecord
100
AcDbLinetypeTableRecord
  2
ByLayer
 70
     0
  3

 72
    65
 73
     0
 40
0.0
  0
LTYPE
  5
16
330
5
100
AcDbSymbolTableRecord
100
AcDbLinetypeTableRecord
  2
Continuous
 70
     0
  3
Solid line
 72
    65
 73
     0
 40
0.0
  0
LTYPE
  5
6E
330
5
100
AcDbSymbolTableRecord
100
AcDbLinetypeTableRecord
  2
HIDDEN
 70
     0
  3
Hidden __ __ __ __ __ __ __ __ __ __ __ __ __ __
 72
    65
 73
     2
 40
1.905
 49
1.27
 74
     0
 49
-0.635
 74
     0
  0
LTYPE
  5
6F
330
5
100
AcDbSymbolTableRecord
100
AcDbLinetypeTableRecord
  2
PHANTOM
 70
     0
  3
Phantom ______  __  __  ______  __  __  ______
 72
    65
 73
     6
 40
12.7
 49
6.35
 74
     0
 49
-1.27
 74
     0
 49
1.27
 74
     0
 49
-1.27
 74
     0
 49
1.27
 74
     0
 49
-1.27
 74
     0
  0
LTYPE
  5
70
330
5
100
AcDbSymbolTableRecord
100
AcDbLinetypeTableRecord
  2
CENTER
 70
     0
  3
Center ____ _ ____ _ ____ _ ____ _ ____ _ ____
 72
    65
 73
     4
 40
10.16
 49
6.35
 74
     0
 49
-1.27
 74
     0
 49
1.27
 74
     0
 49
-1.27
 74
     0
  0
LTYPE
  5
71
330
5
100
AcDbSymbolTableRecord
100
AcDbLinetypeTableRecord
  2
CENTERX2
 70
     0
  3
Center (2x) ________  __  ________  __  _____
 72
    65
 73
     4
 40
20.32
 49
12.7
 74
     0
 49
-2.54
 74
     0
 49
2.54
 74
     0
 49
-2.54
 74
     0
  0
LTYPE
  5
72
330
5
100
AcDbSymbolTableRecord
100
AcDbLinetypeTableRecord
  2
DOT2
 70
     0
  3
Dot (.5x) ........................................
 72
    65
 73
     2
 40
0.635
 49
0.0
 74
     0
 49
-0.635
 74
     0
  0
ENDTAB
  0
TABLE
  2
LAYER
  5
2
330
0
100
AcDbSymbolTable
 70
     1
  0
LAYER
  5
10
330
2
100
AcDbSymbolTableRecord
100
AcDbLayerTableRecord
  2
0
 70
     0
 62
     7
  6
Continuous
370
    -3
390
F
  0
ENDTAB
  0
TABLE
  2
STYLE
  5
3
330
0
100
AcDbSymbolTable
 70
     1
  0
STYLE
  5
11
330
3
100
AcDbSymbolTableRecord
100
AcDbTextStyleTableRecord
  2
Standard
 70
     0
 40
0.0
 41
1.0
 50
0.0
 71
     0
 42
3.5
  3
txt
  4

  0
ENDTAB
  0
TABLE
  2
VIEW
  5
6
330
0
100
AcDbSymbolTable
 70
     0
  0
ENDTAB
  0
TABLE
  2
UCS
  5
7
330
0
100
AcDbSymbolTable
 70
     0
  0
ENDTAB
  0
TABLE
  2
APPID
  5
9
330
0
100
AcDbSymbolTable
 70
     1
  0
APPID
  5
12
330
9
100
AcDbSymbolTableRecord
100
AcDbRegAppTableRecord
  2
ACAD
 70
     0
  0
ENDTAB
  0
TABLE
  2
DIMSTYLE
  5
A
330
0
100
AcDbSymbolTable
 70
     1
100
AcDbDimStyleTable
  0
DIMSTYLE
105
27
330
A
100
AcDbSymbolTableRecord
100
AcDbDimStyleTableRecord
  2
ISO-25
 70
     0
 41
2.5
 42
0.625
 43
3.75
 44
1.25
 73
     0
 74
     0
 77
     1
 78
     8
140
2.5
141
2.5
143
0.0393700787
147
0.625
171
     3
172
     1
178
     0
271
     2
272
     2
274
     3
278
    44
283
     0
284
     8
340
11
  0
ENDTAB
  0
TABLE
  2
BLOCK_RECORD
  5
1
330
0
100
AcDbSymbolTable
 70
     2
  0
BLOCK_RECORD
  5
1F
330
1
100
AcDbSymbolTableRecord
100
AcDbBlockTableRecord
  2
*Model_Space
340
22
  0
BLOCK_RECORD
  5
1B
330
1
100
AcDbSymbolTableRecord
100
AcDbBlockTableRecord
  2
*Paper_Space
340
1E
  0
BLOCK_RECORD
  5
23
330
1
100
AcDbSymbolTableRecord
100
AcDbBlockTableRecord
  2
*Paper_Space0
340
26
  0
BLOCK_RECORD
  5
DA
330
1
100
AcDbSymbolTableRecord
100
AcDbBlockTableRecord
  2
*Paper_Space1
340
DB
  0
ENDTAB
  0
ENDSEC
  0
SECTION
  2
BLOCKS
  0
BLOCK
  5
20
330
1F
100
AcDbEntity
  8
0
100
AcDbBlockBegin
  2
*Model_Space
 70
     0
 10
0.0
 20
0.0
 30
0.0
  3
*Model_Space
  1

  0
ENDBLK
  5
21
330
1F
100
AcDbEntity
  8
0
100
AcDbBlockEnd
  0
BLOCK
  5
1C
330
1B
100
AcDbEntity
 67
     1
  8
0
100
AcDbBlockBegin
  2
*Paper_Space
 70
     0
 10
0.0
 20
0.0
 30
0.0
  3
*Paper_Space
  1

  0
ENDBLK
  5
1D
330
1B
100
AcDbEntity
 67
     1
  8
0
100
AcDbBlockEnd
  0
BLOCK
  5
24
330
23
100
AcDbEntity
  8
0
100
AcDbBlockBegin
  2
*Paper_Space0
 70
     0
 10
0.0
 20
0.0
 30
0.0
  3
*Paper_Space0
  1

  0
SPLINE
  5
C3
330
23
100
AcDbEntity
  8
0
  6
Continuous
 62
     7
370
    25
100
AcDbSpline
210
0.0
220
0.0
230
1.0
 70
     8
 71
     3
 72
    27
 73
    23
 74
     0
 42
0.000000001
 43
0.00000001
 40
0.0
 40
0.0
 40
0.0
 40
0.0
 40
0.0447696180307407
 40
0.0954106470117315
 40
0.1459044224789021
 40
0.1962722547867855
 40
0.2465343678370402
 40
0.2967100449394689
 40
0.3468177799334725
 40
0.396875432605107
 40
0.4469003874732657
 40
0.4969097150532258
 40
0.5469203347341175
 40
0.5969491784266178
 40
0.6470133541469875
 40
0.6971303087027545
 40
0.7473179886339413
 40
0.797594998542573
 40
0.8479807559137469
 40
0.8984956414960822
 40
0.9491611442707406
 40
1.0
 40
1.0
 40
1.0
 40
1.0
 10
615.3960895757715
 20
-563.7456288762501
 30
0.0
 10
621.7272726353946
 20
-556.9642958897382
 30
0.0
 10
635.2199558129366
 20
-542.5122769468732
 30
0.0
 10
654.7520902610881
 20
-519.4217837775481
 30
0.0
 10
674.1852408321629
 20
-494.7613857650504
 30
0.0
 10
692.5920665120586
 20
-469.419158750572
 30
0.0
 10
709.9880517531865
 20
-443.4533531877278
 30
0.0
 10
726.3528929877567
 20
-416.8885208668283
 30
0.0
 10
741.6758391891626
 20
-389.7582037795211
 30
0.0
 10
755.9435819366336
 20
-362.0935343142291
 30
0.0
 10
769.1434907628551
 20
-333.9262823919004
 30
0.0
 10
781.2627461652563
 20
-305.2880417629886
 30
0.0
 10
792.2885751312183
 20
-276.2104487538936
 30
0.0
 10
802.2081715439257
 20
-246.7251248562667
 30
0.0
 10
811.0087768143633
 20
-216.863693293005
 30
0.0
 10
818.6774347592791
 20
-186.6577758194404
 30
0.0
 10
825.2018917067694
 20
-156.1389948567036
 30
0.0
 10
830.5672334744756
 20
-125.3389742328819
 30
0.0
 10
834.7684709612952
 20
-94.28934028304525
 30
0.0
 10
837.7634111092717
 20
-63.02172297463304
 30
0.0
 10
839.6492532399802
 20
-31.56775656486644
 30
0.0
 10
839.8829513738443
 20
-10.53455928297015
 30
0.0
 10
839.9999999999999
 20
0.0
 30
0.0
  0
SPLINE
  5
C4
330
23
100
AcDbEntity
  8
0
  6
Continuous
 62
     7
370
    25
100
AcDbSpline
210
0.0
220
0.0
230
1.0
 70
     8
 71
     3
 72
    27
 73
    23
 74
     0
 42
0.000000001
 43
0.00000001
 40
0.0
 40
0.0
 40
0.0
 40
0.0
 40
0.0508384797928217
 40
0.1015036079129294
 40
0.1520181199544781
 40
0.2024035047397256
 40
0.2526801428665823
 40
0.3028674516765599
 40
0.3529840356341079
 40
0.4030478411465405
 40
0.4530763148923722
 40
0.5030865647613563
 40
0.5530955225389632
 40
0.60312010748921
 40
0.6531773900011436
 40
0.7032847544651039
 40
0.7534600605350795
 40
0.8037218019137164
 40
0.8540892617682235
 40
0.9045826638507097
 40
0.9552233183581255
 40
1.0
 40
1.0
 40
1.0
 40
1.0
 10
-840.0000000000001
 20
0.0
 30
0.0
 10
-839.8829513738442
 20
-10.5345592829702
 30
0.0
 10
-839.6492532399805
 20
-31.56775656486644
 30
0.0
 10
-837.7634111092718
 20
-63.02172297463321
 30
0.0
 10
-834.7684709612957
 20
-94.28934028304536
 30
0.0
 10
-830.5672334744753
 20
-125.3389742328821
 30
0.0
 10
-825.2018917067694
 20
-156.1389948567037
 30
0.0
 10
-818.6774347592794
 20
-186.6577758194412
 30
0.0
 10
-811.0087768143608
 20
-216.8636932930031
 30
0.0
 10
-802.208171543934
 20
-246.7251248562744
 30
0.0
 10
-792.2885751311868
 20
-276.2104487538656
 30
0.0
 10
-781.2627461653746
 20
-305.2880417630951
 30
0.0
 10
-769.1434907624134
 20
-333.9262823915038
 30
0.0
 10
-755.9435819382818
 20
-362.0935343157114
 30
0.0
 10
-741.6758391830036
 20
-389.7582037739841
 30
0.0
 10
-726.3528930107796
 20
-416.8885208875284
 30
0.0
 10
-709.9880516670719
 20
-443.453353110304
 30
0.0
 10
-692.592066834327
 20
-469.4191590403184
 30
0.0
 10
-674.1852396254235
 20
-494.7613846800911
 30
0.0
 10
-654.7520947824679
 20
-519.4217878426466
 30
0.0
 10
-635.2189497874436
 20
-542.5134327443485
 30
0.0
 10
-621.7252116656979
 20
-556.9665635026803
 30
0.0
 10
-615.3929785472748
 20
-563.7490126970454
 30
0.0
  0
LWPOLYLINE
  5
C7
330
23
100
AcDbEntity
  8
0
  6
Continuous
 62
     7
370
    25
100
AcDbPolyline
 90
        4
 70
   128
 43
0.0
 10
344.5000000004
 20
-558.312930024
 10
344.5447104128
 20
-558.3127927899
 10
349.660066298
 20
-558.2969280899
 10
349.660126276
 20
-558.296927902
  0
SPLINE
  5
C8
330
23
100
AcDbEntity
  8
0
  6
Continuous
 62
     7
370
    25
100
AcDbSpline
210
0.0
220
0.0
230
1.0
 70
     8
 71
     3
 72
    14
 73
    10
 74
     0
 42
0.000000001
 43
0.00000001
 40
0.0
 40
0.0
 40
0.0
 40
0.0
 40
0.2500000000000001
 40
0.2500000000000001
 40
0.5000000000000001
 40
0.5000000000000001
 40
0.75
 40
0.75
 40
1.0
 40
1.0
 40
1.0
 40
1.0
 10
-344.4999999996998
 20
-558.3129300239626
 30
0.0
 10
-287.0834862407846
 20
-558.4891483286059
 30
0.0
 10
-229.6668426055392
 20
-558.6056038100592
 30
0.0
 10
-114.833386346974
 20
-558.7580853684299
 30
0.0
 10
-57.41658583291091
 20
-558.7941483029284
 30
0.0
 10
57.41686187122561
 20
-558.7941481830454
 30
0.0
 10
114.8335500799138
 20
-558.7580851912836
 30
0.0
 10
229.6668460386826
 20
-558.6056037652348
 30
0.0
 10
287.0834538731906
 20
-558.4891484279459
 30
0.0
 10
344.5000000003826
 20
-558.31293002396
 30
0.0
  0
SPLINE
  5
CE
330
23
100
AcDbEntity
  8
0
  6
Continuous
 62
     7
370
    25
100
AcDbSpline
210
0.0
220
0.0
230
1.0
 70
    24
 71
     3
 72
    45
 73
    41
 74
     0
 42
0.000000001
 43
0.00000001
 40
0.0
 40
0.0
 40
0.0
 40
0.0
 40
0.027233270918269
 40
0.0544595236015196
 40
0.0818479207966716
 40
0.1092363138336506
 40
0.1371972073866496
 40
0.1651580942297289
 40
0.1933433839081699
 40
0.221528681761205
 40
0.2487780037581143
 40
0.27602730319505
 40
0.3034841779017697
 40
0.3309410695692441
 40
0.3590553163592392
 40
0.3871695341185023
 40
0.4155118344507459
 40
0.4438541666412844
 40
0.4698999865068465
 40
0.4959457947410376
 40
0.5221723403212621
 40
0.5483989079688062
 40
0.575194806636813
 40
0.6019907042435145
 40
0.6289831619974812
 40
0.6559756186410156
 40
0.682046732227858
 40
0.70811785485933
 40
0.7343695302342608
 40
0.7606211834386626
 40
0.7874424919288214
 40
0.8142638207384938
 40
0.8412817266791752
 40
0.8682996128051038
 40
0.8944082082812796
 40
0.9205168281529382
 40
0.9468067363284536
 40
0.9730966384462568
 40
0.9999585766576399
 40
1.0
 40
1.0
 40
1.0
 40
1.0
 10
-344.4552982260221
 20
-570.0
 30
0.0
 10
-348.0907243986387
 20
-570.0
 30
0.0
 10
-355.3606398650318
 20
-569.9999999999999
 30
0.0
 10
-366.280692760437
 20
-570.0
 30
0.0
 10
-377.1850547278665
 20
-569.9999999999999
 30
0.0
 10
-388.1343932298521
 20
-570.0000000000002
 30
0.0
 10
-399.083277998713
 20
-569.9999999999999
 30
0.0
 10
-410.0376716966248
 20
-570.0
 30
0.0
 10
-420.8992540788363
 20
-570.0
 30
0.0
 10
-431.5266610245391
 20
-570.0000000000001
 30
0.0
 10
-441.8752564041341
 20
-569.9999999999999
 30
0.0
 10
-451.9579502305293
 20
-570.0000000000001
 30
0.0
 10
-461.8706336647024
 20
-569.9999999999998
 30
0.0
 10
-471.6711390658473
 20
-570.0000000000001
 30
0.0
 10
-481.3089750571277
 20
-569.9999999999999
 30
0.0
 10
-490.7839718589944
 20
-570.0
 30
0.0
 10
-499.9976006741352
 20
-570.0
 30
0.0
 10
-508.6885502438581
 20
-570.0000000000001
 30
0.0
 10
-516.8432860390731
 20
-570.0000000000002
 30
0.0
 10
-524.4956980967019
 20
-569.9999999999998
 30
0.0
 10
-531.8617542627445
 20
-570.0000000000001
 30
0.0
 10
-538.9781885574206
 20
-570.0000000000001
 30
0.0
 10
-545.807191785215
 20
-569.9999999999999
 30
0.0
 10
-552.3448046341946
 20
-570.0
 30
0.0
 10
-558.5260733360055
 20
-569.9999999999999
 30
0.0
 10
-564.2709044614478
 20
-570.0000000000001
 30
0.0
 10
-569.5685284988476
 20
-570.0
 30
0.0
 10
-574.4382287000653
 20
-570.0
 30
0.0
 10
-578.9293854447916
 20
-570.0
 30
0.0
 10
-583.0610740462823
 20
-569.9999999999999
 30
0.0
 10
-586.8041249609875
 20
-570.0000000000001
 30
0.0
 10
-590.1513137443774
 20
-570.0
 30
0.0
 10
-593.0655416002444
 20
-570.0000000000001
 30
0.0
 10
-595.5103614633733
 20
-569.9999999999999
 30
0.0
 10
-597.4910771449884
 20
-570.0000000000005
 30
0.0
 10
-599.0218153568102
 20
-569.9999999999985
 30
0.0
 10
-600.1375261341244
 20
-570.0000000000056
 30
0.0
 10
-600.7685969978052
 20
-569.9999999999785
 30
0.0
 10
-601.0317337276883
 20
-570.0000000000475
 30
0.0
 10
-600.9555341636716
 20
-570.0
 30
0.0
 10
-600.9554168385328
 20
-570.0
 30
0.0
  0
SPLINE
  5
CF
330
23
100
AcDbEntity
  8
0
  6
Continuous
 62
     7
370
    25
100
AcDbSpline
210
0.0
220
0.0
230
1.0
 70
    24
 71
     3
 72
    44
 73
    40
 74
     0
 42
0.000000001
 43
0.00000001
 40
0.0
 40
0.0
 40
0.0
 40
0.0
 40
0.0239314242305635
 40
0.0507931550327643
 40
0.077654894119195
 40
0.1047140855617652
 40
0.1317732492897415
 40
0.1578442526034244
 40
0.1839152736877024
 40
0.2101666960353618
 40
0.2364181014857323
 40
0.2632390822318555
 40
0.2900600850932012
 40
0.3170779229396573
 40
0.344095750995262
 40
0.3701414742880255
 40
0.3961871972251458
 40
0.4224134162401296
 40
0.4486396377976328
 40
0.4754351556967177
 40
0.5022306475891111
 40
0.5292231241559648
 40
0.5562156148616415
 40
0.5834540059672934
 40
0.6106923706659824
 40
0.6381379620582661
 40
0.6655835814578821
 40
0.6936855504889257
 40
0.7217875031538933
 40
0.7501172143893159
 40
0.7784469494127657
 40
0.805611200025135
 40
0.8327754442625336
 40
0.8601451594572642
 40
0.8875148761096062
 40
0.9155293791266997
 40
0.943543888718617
 40
0.9717680910223937
 40
0.9999999999999999
 40
0.9999999999999999
 40
0.9999999999999999
 40
0.9999999999999999
 10
600.9378463470572
 20
-570.0
 30
0.0
 10
600.9098802413993
 20
-570.0
 30
0.0
 10
600.8505236930106
 20
-570.0
 30
0.0
 10
600.2043385466853
 20
-570.0
 30
0.0
 10
599.1154729572808
 20
-570.0000000000001
 30
0.0
 10
597.5540267326783
 20
-569.9999999999999
 30
0.0
 10
595.557708318093
 20
-569.9999999999999
 30
0.0
 10
593.1479837286074
 20
-570.0
 30
0.0
 10
590.3443092433112
 20
-570.0
 30
0.0
 10
587.1171062554243
 20
-570.0000000000002
 30
0.0
 10
583.4430596104329
 20
-570.0
 30
0.0
 10
579.3235454014805
 20
-570.0
 30
0.0
 10
574.7457797128943
 20
-570.0
 30
0.0
 10
569.7434611265767
 20
-570.0
 30
0.0
 10
564.3882809129665
 20
-569.9999999999999
 30
0.0
 10
558.7172759430622
 20
-570.0
 30
0.0
 10
552.7429991858035
 20
-570.0
 30
0.0
 10
546.4026027809102
 20
-569.9999999999999
 30
0.0
 10
539.6570687737043
 20
-570.0000000000001
 30
0.0
 10
532.523121025387
 20
-570.0000000000002
 30
0.0
 10
524.9871063102574
 20
-570.0
 30
0.0
 10
517.1097045672682
 20
-569.9999999999999
 30
0.0
 10
508.8792468329066
 20
-570.0000000000002
 30
0.0
 10
500.3261733498351
 20
-569.9999999999999
 30
0.0
 10
491.4413515081407
 20
-570.0000000000001
 30
0.0
 10
482.2635293051165
 20
-570.0
 30
0.0
 10
472.7336553612991
 20
-570.0000000000002
 30
0.0
 10
462.8858363793754
 20
-569.9999999999999
 30
0.0
 10
452.7063471944172
 20
-570.0000000000002
 30
0.0
 10
442.2896831407058
 20
-569.9999999999999
 30
0.0
 10
431.8015848760986
 20
-570.0
 30
0.0
 10
421.2995143136399
 20
-570.0
 30
0.0
 10
410.784416292485
 20
-569.9999999999999
 30
0.0
 10
400.1262222364566
 20
-570.0000000000001
 30
0.0
 10
389.2598650442079
 20
-570.0000000000001
 30
0.0
 10
378.2298124992658
 20
-570.0
 30
0.0
 10
367.0298732497964
 20
-569.9999999999998
 30
0.0
 10
355.7606021660887
 20
-570.0000000000002
 30
0.0
 10
348.2240758035661
 20
-570.0
 30
0.0
 10
344.4552982267047
 20
-570.0
 30
0.0
  0
SPLINE
  5
D1
330
23
100
AcDbEntity
  8
0
  6
Continuous
 62
     7
370
    25
100
AcDbSpline
210
0.0
220
0.0
230
1.0
 70
    24
 71
     3
 72
    14
 73
    10
 74
     0
 42
0.000000001
 43
0.00000001
 40
0.0
 40
0.0
 40
0.0
 40
0.0
 40
0.25
 40
0.25
 40
0.5
 40
0.5
 40
0.75
 40
0.75
 40
1.0
 40
1.0
 40
1.0
 40
1.0
 10
344.4552982267047
 20
-570.0
 30
0.0
 10
287.0461504609731
 20
-569.9999999999999
 30
0.0
 10
229.6369667413218
 20
-570.0000000000002
 30
0.0
 10
114.8185540869993
 20
-570.0
 30
0.0
 10
57.40932501892938
 20
-569.9999999999997
 30
0.0
 10
-57.40917280140054
 20
-569.9999999999995
 30
0.0
 10
-114.818464721916
 20
-570.0000000000002
 30
0.0
 10
-229.6369668947231
 20
-570.0000000000002
 30
0.0
 10
-287.046170397568
 20
-570.0
 30
0.0
 10
-344.455298226022
 20
-570.0
 30
0.0
  0
SPLINE
  5
D2
330
23
100
AcDbEntity
  8
0
  6
Continuous
 62
     8
370
    25
100
AcDbSpline
210
0.0
220
0.0
230
1.0
 70
     8
 71
     3
 72
    36
 73
    32
 74
     0
 42
0.000000001
 43
0.00000001
 40
0.0
 40
0.0
 40
0.0
 40
0.0
 40
0.000000142705388
 40
0.0349596926926622
 40
0.069945602272772
 40
0.1049051788492221
 40
0.1408585704968716
 40
0.1768407117141375
 40
0.2127942798016488
 40
0.2498115660936093
 40
0.286860142912753
 40
0.3238776171720716
 40
0.3620761039633615
 40
0.4003088157393773
 40
0.4385074758360091
 40
0.4737588046873601
 40
0.5090368485276654
 40
0.5442882395500733
 40
0.580543788627517
 40
0.6168282237606948
 40
0.6530837582167867
 40
0.6882701303073214
 40
0.7234827729183737
 40
0.7586691072919349
 40
0.7948450874143788
 40
0.8310495647994482
 40
0.8672255733338917
 40
0.902422401671112
 40
0.9376454810800817
 40
0.972842440639378
 40
0.9999999999999999
 40
0.9999999999999999
 40
0.9999999999999999
 40
0.9999999999999999
 10
349.6601262759895
 20
-558.2969279020012
 30
0.0
 10
349.6601462699484
 20
-558.296928328359
 30
0.0
 10
354.5582280053627
 20
-558.4013766203677
 30
0.0
 10
364.3568586997785
 20
-558.610176228171
 30
0.0
 10
378.997143672008
 20
-558.9219394792174
 30
0.0
 10
393.6780270816357
 20
-559.2347031499044
 30
0.0
 10
408.3495124583312
 20
-559.5473843751992
 30
0.0
 10
422.9604109697748
 20
-559.8581814994297
 30
0.0
 10
437.4705251589108
 20
-560.1656873538012
 30
0.0
 10
451.8218394776831
 20
-560.4686579881865
 30
0.0
 10
465.957402673212
 20
-560.7659389618839
 30
0.0
 10
479.838347958808
 20
-561.055820865516
 30
0.0
 10
493.3978626245952
 20
-561.3369894152538
 30
0.0
 10
506.5739787979856
 20
-561.6085143532183
 30
0.0
 10
518.8559319488995
 20
-561.8592652777367
 30
0.0
 10
530.2468072158737
 20
-562.0897795070208
 30
0.0
 10
540.7724923411656
 20
-562.3013140356014
 30
0.0
 10
550.8044992956732
 20
-562.5011373891067
 30
0.0
 10
560.287852883282
 20
-562.6883692119353
 30
0.0
 10
569.1772118840786
 20
-562.8625809936458
 30
0.0
 10
577.2753546023805
 20
-563.020107290922
 30
0.0
 10
584.5759485669504
 20
-563.1610742841814
 30
0.0
 10
591.0899839302782
 20
-563.2860475992064
 30
0.0
 10
596.9247987234868
 20
-563.3975577873365
 30
0.0
 10
602.0322368656006
 20
-563.4947968364395
 30
0.0
 10
606.379219370425
 20
-563.5771692880629
 30
0.0
 10
609.8710093812831
 20
-563.643300707315
 30
0.0
 10
612.5244769530796
 20
-563.6936543797167
 30
0.0
 10
614.3303606329983
 20
-563.7279085094897
 30
0.0
 10
615.3536297377652
 20
-563.747368489686
 30
0.0
 10
615.3851790819508
 20
-563.7479693498092
 30
0.0
 10
615.3989199174563
 20
-563.7482310452683
 30
0.0
  0
LWPOLYLINE
  5
D3
330
23
100
AcDbEntity
  8
0
  6
Continuous
 62
     8
370
    25
100
AcDbPolyline
 90
       30
 70
   128
 43
0.0
 10
-615.3919877547
 20
-563.7481017789
 10
-615.2902295503
 20
-563.7461649113
 10
-614.2956260537
 20
-563.7272616114
 10
-612.4528929421
 20
-563.6922938191
 10
-609.7698241638
 20
-563.6414015931
 10
-606.3576556723
 20
-563.5767524734
 10
-602.1642181466
 20
-563.4972294825
 10
-597.2080832878
 20
-563.4028991169
 10
-591.3256384238
 20
-563.2905005759
 10
-584.6612203356
 20
-563.1625829379
 10
-577.2465142757
 20
-563.0193649836
 10
-569.3128214029
 20
-562.8650165797
 10
-560.6994778197
 20
-562.6962319211
 10
-551.4453401857
 20
-562.513552179
 10
-541.2786648324
 20
-562.3111298168
 10
-530.4792168661
 20
-562.094212017
 10
-519.0982908481
 20
-561.8638376182
 10
-506.8986079464
 20
-561.6147541939
 10
-494.1503276965
 20
-561.35223855
 10
-480.9167921008
 20
-561.0779055943
 10
-466.785731474
 20
-560.7829267024
 10
-452.2108979527
 20
-560.476649983
 10
-437.2699020878
 20
-560.1612477905
 10
-419.4160582778
 20
-559.7828635852
 10
-401.2052545167
 20
-559.3952157677
 10
-382.3482598825
 20
-558.9933343665
 10
-363.3081341372
 20
-558.5878071642
 10
-349.6601862362
 20
-558.2969291806
 10
-349.660126276
 20
-558.296927902
 10
-349.660126276
 20
-558.296927902
  0
LINE
  5
D4
330
23
100
AcDbEntity
  8
0
  6
Continuous
 62
     7
370
    25
100
AcDbLine
 10
-349.660126276
 20
-558.296927902
 30
0.0
 11
-344.4999999997
 21
-558.312930024
 31
0.0
  0
LINE
  5
D5
330
23
100
AcDbEntity
  8
0
  6
Continuous
 62
     7
370
    25
100
AcDbLine
 10
-840.0
 20
0.0
 30
0.0
 11
840.0
 21
0.0
 31
0.0
  0
ARC
  5
D6
330
23
100
AcDbEntity
  8
0
  6
Continuous
 62
     7
370
    25
100
AcDbCircle
 10
-600.9559547472
 20
-550.0000000577
 30
0.0
 40
19.99999994225405
100
AcDbArc
 50
223.5846355641
 51
270.0000726634
  0
ARC
  5
D7
330
23
100
AcDbEntity
  8
0
  6
Continuous
 62
     7
370
    25
100
AcDbCircle
 10
600.9559547531
 20
-550.0000000571
 30
0.0
 40
19.99999994294328
100
AcDbArc
 50
269.9999282931
 51
316.4166734159
  0
ARC
  5
D8
330
23
100
AcDbEntity
  8
0
  6
Continuous
 62
     7
370
    25
100
AcDbCircle
 10
616.5327996807
 20
-560.4807043917
 30
0.0
 40
961.0352445708454
100
AcDbArc
 50
179.870759758
 51
180.5675383755
  0
ARC
  5
D9
330
23
100
AcDbEntity
  8
0
  6
Continuous
 62
     7
370
    25
100
AcDbCircle
 10
-616.5327996825
 20
-560.4807043917
 30
0.0
 40
961.0352445732934
100
AcDbArc
 50
359.4324616245
 51
0.129240242
  0
VIEWPORT
  5
117
330
23
100
AcDbEntity
  8
0
100
AcDbViewport
 10
0.0
 20
0.0
 30
0.0
 40
205.6
 41
156.0
 68
     1
 69
     1
 12
0.0
 22
0.0
 13
0.0
 23
0.0
 14
10.0
 24
10.0
 15
10.0
 25
10.0
 16
0.0
 26
0.0
 36
1.0
 17
0.0
 27
0.0
 37
0.0
 42
50.0
 43
0.0
 44
0.0
 45
1300.2023346304
 50
0.0
 51
0.0
 72
   100
 90
   557152
  1

281
     0
 71
     1
 74
     0
110
0.0
120
0.0
130
0.0
111
1.0
121
0.0
131
0.0
112
0.0
122
1.0
132
0.0
 79
     0
146
0.0
  0
ENDBLK
  5
25
330
23
100
AcDbEntity
  8
0
100
AcDbBlockEnd
  0
BLOCK
  5
DC
330
DA
100
AcDbEntity
  8
0
100
AcDbBlockBegin
  2
*Paper_Space1
 70
     0
 10
0.0
 20
0.0
 30
0.0
  3
*Paper_Space1
  1

  0
SPLINE
  5
DE
330
DA
100
AcDbEntity
  8
0
  6
Continuous
 62
     7
370
    25
100
AcDbSpline
210
0.0
220
0.0
230
1.0
 70
     8
 71
     3
 72
   148
 73
   144
 74
     0
 42
0.000000001
 43
0.00000001
 40
0.0
 40
0.0
 40
0.0
 40
0.0
 40
0.0009399113529886
 40
0.0066969487813175
 40
0.0106234475934788
 40
0.014114939152569
 40
0.0251708334819401
 40
0.0349222478041193
 40
0.0439564420127286
 40
0.0543042559180709
 40
0.0653437242917351
 40
0.0765986530778197
 40
0.0866004049645772
 40
0.0965528896983339
 40
0.1060256296186505
 40
0.1158374549134018
 40
0.1269705866799949
 40
0.1384801702576302
 40
0.1477499366325674
 40
0.155804663818663
 40
0.1639435349664357
 40
0.171740469751053
 40
0.1795961032036251
 40
0.1894618511656505
 40
0.2003045655781168
 40
0.2075090835355862
 40
0.2134803481615567
 40
0.2194247959684683
 40
0.2253795050921517
 40
0.2322108531095206
 40
0.2401888211366704
 40
0.2485782611548465
 40
0.2549636539488704
 40
0.2600821517270499
 40
0.2650981143187198
 40
0.270482481470715
 40
0.2766078895848919
 40
0.2840985297206049
 40
0.2915069682195808
 40
0.2980040408230216
 40
0.3037229998314368
 40
0.3096558337058589
 40
0.3166800444700293
 40
0.3254658426764275
 40
0.33119014634446
 40
0.3355146516968201
 40
0.3393958351867305
 40
0.343288132546716
 40
0.3478281410746059
 40
0.3533019051386015
 40
0.3588808134713635
 40
0.366018863551171
 40
0.3721640889333895
 40
0.3777384211705938
 40
0.3842007554154697
 40
0.3957647477446274
 40
0.4054947988477635
 40
0.4142770286206268
 40
0.4259100743767715
 40
0.4360968159741681
 40
0.4449241957466185
 40
0.4522609643013806
 40
0.4604909611116066
 40
0.4667499732976035
 40
0.4728546486458748
 40
0.4800979780682183
 40
0.4877172463370379
 40
0.4945832181597116
 40
0.4985974254732228
 40
0.5034919211062879
 40
0.5095279400567029
 40
0.5150511289816443
 40
0.5195634522961212
 40
0.523420219133071
 40
0.5270272463788053
 40
0.5308706007807649
 40
0.536135990911436
 40
0.5451110894073539
 40
0.5515151347397883
 40
0.5579360545432678
 40
0.5657124401384706
 40
0.5728785584951295
 40
0.5768977669653644
 40
0.5804918137737194
 40
0.5840504693189337
 40
0.5888209704222932
 40
0.5948052305159988
 40
0.6005336270839637
 40
0.605497611514012
 40
0.6096960362861642
 40
0.6141452686309055
 40
0.6180294847776865
 40
0.6214783128129222
 40
0.6261169443050787
 40
0.6324184002427164
 40
0.6405688487525499
 40
0.6467311409307654
 40
0.6558105952174266
 40
0.6640325950288993
 40
0.6703011639366012
 40
0.6777109628864333
 40
0.6855637380689124
 40
0.6930585806698245
 40
0.6968351708555595
 40
0.7006373240589256
 40
0.7054203925389894
 40
0.7110969329280334
 40
0.7159874685499014
 40
0.7195277682968497
 40
0.7235770485973714
 40
0.7290083403274218
 40
0.7356643605489402
 40
0.7418967407225429
 40
0.7523577479701558
 40
0.7621816093605428
 40
0.7737944933398275
 40
0.7840643823016968
 40
0.7959800380193318
 40
0.8063435324617942
 40
0.8179649514177975
 40
0.8304606996967783
 40
0.8434358868482359
 40
0.856994641711008
 40
0.8671510133483986
 40
0.8816646474366107
 40
0.8885677584889211
 40
0.894666862914628
 40
0.9000388817974428
 40
0.9059237450160897
 40
0.9133109183301141
 40
0.9200532309214271
 40
0.9260004037913162
 40
0.933011857785144
 40
0.9413215908252606
 40
0.9472384322135781
 40
0.9516089580018546
 40
0.9548991731002422
 40
0.9590913994438108
 40
0.964410518051116
 40
0.9709471580732528
 40
0.9790515567648721
 40
0.9887328686162848
 40
1.0
 40
1.0
 40
1.0
 40
1.0
 10
444.9572030914765
 20
-705.629254947832
 30
0.0
 10
445.1179885672253
 20
-705.5269238064731
 30
0.0
 10
446.2635988340297
 20
-704.7978056718378
 30
0.0
 10
448.0661094016106
 20
-703.6220222770617
 30
0.0
 10
450.2686999364353
 20
-702.1778582047435
 30
0.0
 10
453.3476391955404
 20
-700.137032225836
 30
0.0
 10
457.413899325522
 20
-697.3928065090869
 30
0.0
 10
462.3506254084949
 20
-693.971713935348
 30
0.0
 10
467.1327063829333
 20
-690.5793348806186
 30
0.0
 10
472.0835661781427
 20
-686.9817471971875
 30
0.0
 10
477.3447219785025
 20
-683.0568271900511
 30
0.0
 10
482.4943656916581
 20
-679.1093320997131
 30
0.0
 10
487.4224736189134
 20
-675.2332657537693
 30
0.0
 10
492.0160235720797
 20
-671.5330819491342
 30
0.0
 10
496.5648132197799
 20
-667.7828344177866
 30
0.0
 10
501.2081076306927
 20
-663.8662035396213
 30
0.0
 10
506.1294570931594
 20
-659.61204282091
 30
0.0
 10
510.9112272971953
 20
-655.3675568391614
 30
0.0
 10
515.1852187326202
 20
-651.4812802996163
 30
0.0
 10
518.9257535831937
 20
-648.011329214356
 30
0.0
 10
522.4176712327504
 20
-644.7111369835743
 30
0.0
 10
525.8501578482196
 20
-641.4073877074064
 30
0.0
 10
529.4993024584923
 20
-637.8318291864869
 30
0.0
 10
533.5430098852929
 20
-633.7890288245685
 30
0.0
 10
537.4476426738192
 20
-629.7926642296674
 30
0.0
 10
540.774260688193
 20
-626.3178363485753
 30
0.0
 10
543.4004508353324
 20
-623.533641408954
 30
0.0
 10
545.8377754690955
 20
-620.9148510659356
 30
0.0
 10
548.3735571966084
 20
-618.1536507232465
 30
0.0
 10
551.1615616460736
 20
-615.0740356989293
 30
0.0
 10
554.2498059469834
 20
-611.6058174803087
 30
0.0
 10
557.2471233968972
 20
-608.1776451347613
 30
0.0
 10
559.8456650279619
 20
-605.1561991331212
 30
0.0
 10
561.9863382079253
 20
-602.6350233544154
 30
0.0
 10
563.984321291082
 20
-600.2552067652268
 30
0.0
 10
566.0969789053785
 20
-597.7095128912539
 30
0.0
 10
568.5079386877297
 20
-594.7669480751506
 30
0.0
 10
571.1509552209226
 20
-591.4919776199935
 30
0.0
 10
573.816600150785
 20
-588.1338135504739
 30
0.0
 10
576.2377413957668
 20
-585.0361430585381
 30
0.0
 10
578.4582677394701
 20
-582.156299334662
 30
0.0
 10
580.7239442284274
 20
-579.179580887051
 30
0.0
 10
583.3381782882794
 20
-575.6950484124459
 30
0.0
 10
585.8978236975197
 20
-572.2227197343879
 30
0.0
 10
588.1161123782772
 20
-569.1644111241197
 30
0.0
 10
589.7438945972787
 20
-566.8949084555545
 30
0.0
 10
591.1509769755338
 20
-564.9150718994019
 30
0.0
 10
592.5806469098092
 20
-562.8858201472191
 30
0.0
 10
594.1781235881506
 20
-560.596785258076
 30
0.0
 10
595.9487721959176
 20
-558.0310807033268
 30
0.0
 10
597.9995660389906
 20
-555.0225438310268
 30
0.0
 10
600.1105075146843
 20
-551.8812899362323
 30
0.0
 10
602.2011915163133
 20
-548.7233122576288
 30
0.0
 10
604.1977423629381
 20
-545.6674199007962
 30
0.0
 10
606.7654477027153
 20
-541.6835364330024
 30
0.0
 10
609.7425941156615
 20
-536.9690958627895
 30
0.0
 10
612.91699987389
 20
-531.8190514763655
 30
0.0
 10
616.0491273727305
 20
-526.6289287056302
 30
0.0
 10
619.1751346233859
 20
-521.3261593807919
 30
0.0
 10
622.2520701241441
 20
-515.9734127803559
 30
0.0
 10
624.8528773014483
 20
-511.3478566565331
 30
0.0
 10
627.2269455301766
 20
-507.0451223365773
 30
0.0
 10
629.3231489462427
 20
-503.1758764207376
 30
0.0
 10
631.2761434313862
 20
-499.508722088129
 30
0.0
 10
633.1134175148037
 20
-496.0078558278707
 30
0.0
 10
635.0551588464585
 20
-492.2485548811849
 30
0.0
 10
637.039591530697
 20
-488.3374533449795
 30
0.0
 10
638.708040073287
 20
-484.9911754742201
 30
0.0
 10
640.1217581613043
 20
-482.1179138753752
 30
0.0
 10
641.4429015491421
 20
-479.4033465627375
 30
0.0
 10
642.8787877101387
 20
-476.413358888486
 30
0.0
 10
644.2671589798192
 20
-473.4809633552406
 30
0.0
 10
645.4570539307898
 20
-470.9363658249577
 30
0.0
 10
646.4749213796866
 20
-468.736860433907
 30
0.0
 10
647.4286827600089
 20
-466.6565664462456
 30
0.0
 10
648.4928951051423
 20
-464.3135668191432
 30
0.0
 10
649.9920941017225
 20
-460.974800887603
 30
0.0
 10
651.6798598401299
 20
-457.1475919023499
 30
0.0
 10
653.4341581382216
 20
-453.0904413900304
 30
0.0
 10
655.0681946551638
 20
-449.2483913282412
 30
0.0
 10
656.7377963755802
 20
-445.2495832713969
 30
0.0
 10
658.1958810962961
 20
-441.6881861575432
 30
0.0
 10
659.3183823452202
 20
-438.9055679533971
 30
0.0
 10
660.159765615744
 20
-436.7985590920568
 30
0.0
 10
661.0501849430359
 20
-434.5472922911852
 30
0.0
 10
662.1086351359147
 20
-431.8410252692439
 30
0.0
 10
663.3129809974845
 20
-428.7165375953823
 30
0.0
 10
664.5155006832604
 20
-425.5464574681272
 30
0.0
 10
665.5760866557683
 20
-422.7090339150076
 30
0.0
 10
666.5349718755442
 20
-420.1108409895256
 30
0.0
 10
667.4085285301043
 20
-417.7150609115058
 30
0.0
 10
668.2219253779635
 20
-415.4579511113373
 30
0.0
 10
669.0412642005145
 20
-413.160588293672
 30
0.0
 10
670.0149458707259
 20
-410.3987881174085
 30
0.0
 10
671.2891799413713
 20
-406.7272739349346
 30
0.0
 10
672.6409990592462
 20
-402.7495870025987
 30
0.0
 10
674.1467368824406
 20
-398.2247178252347
 30
0.0
 10
675.6267298027192
 20
-393.6750218028379
 30
0.0
 10
677.0805427029076
 20
-389.0872187736985
 30
0.0
 10
678.4042120119449
 20
-384.8160175708374
 30
0.0
 10
679.6811202588514
 20
-380.6069247853873
 30
0.0
 10
681.0019381312253
 20
-376.1466697116644
 30
0.0
 10
682.0875697273931
 20
-372.3890147253894
 30
0.0
 10
682.9292304433174
 20
-369.4217480073111
 30
0.0
 10
683.6115144168825
 20
-366.9861135756834
 30
0.0
 10
684.388444345343
 20
-364.1727081246356
 30
0.0
 10
685.2115617329127
 20
-361.1391326259399
 30
0.0
 10
685.9559197972729
 20
-358.3459801193467
 30
0.0
 10
686.6057194495843
 20
-355.8719498201624
 30
0.0
 10
687.2750631003308
 20
-353.2896169929679
 30
0.0
 10
688.0919685344536
 20
-350.0850023290382
 30
0.0
 10
689.0014148950394
 20
-346.439608703343
 30
0.0
 10
690.1361326771598
 20
-341.7836692580928
 30
0.0
 10
691.3884021211433
 20
-336.484070793106
 30
0.0
 10
692.8412742111083
 20
-330.0939936672745
 30
0.0
 10
694.2296813328551
 20
-323.7256228298224
 30
0.0
 10
695.6496430099415
 20
-316.9173670463178
 30
0.0
 10
696.9577023317635
 20
-310.3466666944699
 30
0.0
 10
698.2593640902043
 20
-303.4826628344524
 30
0.0
 10
699.5212173429512
 20
-296.4880501071104
 30
0.0
 10
700.8063085094334
 20
-288.9452763897631
 30
0.0
 10
702.0781356172838
 20
-280.9909968983659
 30
0.0
 10
703.1973239162351
 20
-273.4830469773265
 30
0.0
 10
704.2893115364207
 20
-265.6543988733558
 30
0.0
 10
705.1294528517058
 20
-259.1724333569959
 30
0.0
 10
705.8147641276196
 20
-253.5139515128152
 30
0.0
 10
706.2534745136127
 20
-249.7313671805288
 30
0.0
 10
706.6521376885562
 20
-246.1550397133134
 30
0.0
 10
707.0636833828316
 20
-242.3111723825643
 30
0.0
 10
707.4845568633476
 20
-238.1805621034668
 30
0.0
 10
707.884463261567
 20
-234.0324566791935
 30
0.0
 10
708.2571603148018
 20
-229.9594166502063
 30
0.0
 10
708.6378691699077
 20
-225.5590205945708
 30
0.0
 10
708.9926594112411
 20
-221.1597142794076
 30
0.0
 10
709.2827384331586
 20
-217.3033552788029
 30
0.0
 10
709.4836920050586
 20
-214.4853747668982
 30
0.0
 10
709.651883316239
 20
-212.0265769055271
 30
0.0
 10
709.8247867298064
 20
-209.3901387294636
 30
0.0
 10
710.0289660906762
 20
-206.0979635297656
 30
0.0
 10
710.26619429021
 20
-201.9829074695272
 30
0.0
 10
710.5297930110302
 20
-196.9199743718253
 30
0.0
 10
710.8091569411835
 20
-190.8445802728323
 30
0.0
 10
710.967251980259
 20
-186.4406059323692
 30
0.0
 10
711.0522834814726
 20
-184.071925980949
 30
0.0
  0
SPLINE
  5
DF
330
DA
100
AcDbEntity
  8
0
  6
Continuous
 62
     7
370
    25
100
AcDbSpline
210
0.0
220
0.0
230
1.0
 70
     8
 71
     3
 72
   148
 73
   144
 74
     0
 42
0.000000001
 43
0.00000001
 40
0.0
 40
0.0
 40
0.0
 40
0.0
 40
0.008437002372744
 40
0.0154659957791166
 40
0.0210879443560748
 40
0.0258313620353454
 40
0.0301479689222825
 40
0.0341012004540844
 40
0.0392791062478523
 40
0.0452949918241558
 40
0.052021332184018
 40
0.0578696512744438
 40
0.0630668929725983
 40
0.0681361808296199
 40
0.0758166577488432
 40
0.0835953082631168
 40
0.0902258739623804
 40
0.0959347451746038
 40
0.1011878641052842
 40
0.1061449256500488
 40
0.11213010709172
 40
0.1190708393422065
 40
0.1252455849096639
 40
0.1309218012224073
 40
0.1353345314959042
 40
0.1402903253378279
 40
0.1457208396596319
 40
0.1505480372762061
 40
0.1544001161761512
 40
0.1572769448241239
 40
0.1601016296701801
 40
0.165108551258228
 40
0.1716693698012754
 40
0.1782326971111282
 40
0.1839134185028812
 40
0.1887680245074616
 40
0.1939374274162848
 40
0.1998688370180541
 40
0.206117483000845
 40
0.2110495589449043
 40
0.2157809478755082
 40
0.2211373889845074
 40
0.2270933104563274
 40
0.2335157818247235
 40
0.2403860085749678
 40
0.2469849569033518
 40
0.2525828272304729
 40
0.258116868538272
 40
0.264596519076485
 40
0.2719864981060197
 40
0.2782380028662189
 40
0.2826364995531283
 40
0.2862742292542734
 40
0.2914777579762231
 40
0.2981805121055497
 40
0.3046503379248541
 40
0.3102288622274123
 40
0.3150426424183853
 40
0.3203418622253164
 40
0.3270470258247283
 40
0.3330661046174648
 40
0.3377271540792283
 40
0.3425953635439519
 40
0.3482723515469936
 40
0.3561956963415563
 40
0.3643858371556624
 40
0.3724040946901477
 40
0.3792305091028827
 40
0.3836374506429547
 40
0.3887153411879504
 40
0.394464435798706
 40
0.4002521428952088
 40
0.4048765712714443
 40
0.4123693311755177
 40
0.424243492006339
 40
0.4360688056996979
 40
0.4461065118677138
 40
0.4585849156209044
 40
0.4694013420439211
 40
0.4789497606910088
 40
0.4880215342995198
 40
0.4974715598579752
 40
0.5023786771925678
 40
0.5072940070744228
 40
0.5127593449985024
 40
0.5190303384613689
 40
0.5259232272245045
 40
0.5305884831591967
 40
0.5342943996643558
 40
0.5376001730970735
 40
0.5418154527097412
 40
0.5469942982970251
 40
0.5546419256152265
 40
0.5608650068851202
 40
0.5667560871505517
 40
0.5728657580552811
 40
0.5787583333813116
 40
0.5842974756470721
 40
0.5902068230226104
 40
0.5974686222999513
 40
0.6056985607460276
 40
0.6126430676929597
 40
0.6183885122100127
 40
0.6250836490620815
 40
0.6302866507174608
 40
0.6357403739159346
 40
0.6403850839792383
 40
0.644131467004062
 40
0.6471312945628795
 40
0.6511012694376106
 40
0.6565237895376266
 40
0.6652726219087834
 40
0.6722075299533984
 40
0.677543303107642
 40
0.6829420570065065
 40
0.6887106653189825
 40
0.6944005889160203
 40
0.6993878083637433
 40
0.7050025006187873
 40
0.7117944649116754
 40
0.7195561196126773
 40
0.7270922837434172
 40
0.7395149493431803
 40
0.7506457670371393
 40
0.7610175172867226
 40
0.7708078205708006
 40
0.7801409641384958
 40
0.7978576036278614
 40
0.8184454801949421
 40
0.83878039592426
 40
0.8599882629106778
 40
0.8801828339451113
 40
0.8976964497810754
 40
0.9096256560497329
 40
0.9219183365950117
 40
0.935110846241528
 40
0.950373274994956
 40
0.9588297577637374
 40
0.9671204876252607
 40
0.9756794719752329
 40
0.9860586936921065
 40
0.9983975890661384
 40
1.0
 40
1.0
 40
1.0
 40
1.0
 10
-711.039825004058
 20
174.7883732697951
 30
0.0
 10
-710.9767869056485
 20
173.1319520980523
 30
0.0
 10
-710.8612308205775
 20
170.0955415675333
 30
0.0
 10
-710.6714980831819
 20
165.9526134521354
 30
0.0
 10
-710.4997447760495
 20
162.5347281726026
 30
0.0
 10
-710.3429595278446
 20
159.6495038868812
 30
0.0
 10
-710.1951364720009
 20
157.0917918795443
 30
0.0
 10
-710.0339791869534
 20
154.4486172856512
 30
0.0
 10
-709.8420601491548
 20
151.471426509495
 30
0.0
 10
-709.59991442746
 20
147.9486451247137
 30
0.0
 10
-709.330913406215
 20
144.2932569033465
 30
0.0
 10
-709.0570017810194
 20
140.7980536188888
 30
0.0
 10
-708.7953266062441
 20
137.6283850159535
 30
0.0
 10
-708.4903036032889
 20
134.0996559443414
 30
0.0
 10
-708.1219522550404
 20
130.0630444271751
 30
0.0
 10
-707.7002348389133
 20
125.7187341915956
 30
0.0
 10
-707.2947519723067
 20
121.7622223024606
 30
0.0
 10
-706.9242261516818
 20
118.3028567884209
 30
0.0
 10
-706.5761078144373
 20
115.1725001024726
 30
0.0
 10
-706.2098357834144
 20
111.9880614818764
 30
0.0
 10
-705.7911604384079
 20
108.4726674567765
 30
0.0
 10
-705.3259535258627
 20
104.7181524774059
 30
0.0
 10
-704.8503321961837
 20
101.0247340630845
 30
0.0
 10
-704.4247665704328
 20
97.8290075030058
 30
0.0
 10
-704.0201397217854
 20
94.87335442139319
 30
0.0
 10
-703.6121013276463
 20
91.96628967408624
 30
0.0
 10
-703.1812281037812
 20
88.97813460494861
 30
0.0
 10
-702.7711716149871
 20
86.20699588931043
 30
0.0
 10
-702.4281227992198
 20
83.93768746268785
 30
0.0
 10
-702.1399273148808
 20
82.06194616561382
 30
0.0
 10
-701.8126105489426
 20
79.9602381814348
 30
0.0
 10
-701.3646626451657
 20
77.13609389313456
 30
0.0
 10
-700.7853682639926
 20
73.57899045734325
 30
0.0
 10
-700.1669500649338
 20
69.89050110058523
 30
0.0
 10
-699.5897841242366
 20
66.53760007029855
 30
0.0
 10
-699.0480043834351
 20
63.45908471106129
 30
0.0
 10
-698.4863258832027
 20
60.33247911488984
 30
0.0
 10
-697.8619995825526
 20
56.93369108230159
 30
0.0
 10
-697.231543230939
 20
53.58243758203704
 30
0.0
 10
-696.632888439207
 20
50.46754867243283
 30
0.0
 10
-696.0577079566784
 20
47.52848575179999
 30
0.0
 10
-695.4320026108395
 20
44.38997632754635
 30
0.0
 10
-694.7263492834009
 20
40.92183173390176
 30
0.0
 10
-693.9439706856917
 20
37.15954189786183
 30
0.0
 10
-693.1171719135291
 20
33.2735677969562
 30
0.0
 10
-692.3069134663382
 20
29.55057282962817
 30
0.0
 10
-691.5385618194737
 20
26.0902095147674
 30
0.0
 10
-690.761992395982
 20
22.65502570808234
 30
0.0
 10
-689.8904539905653
 20
18.87228721226683
 30
0.0
 10
-688.967613826221
 20
14.95199155906821
 30
0.0
 10
-688.1234368774393
 20
11.43922121502014
 30
0.0
 10
-687.4445197570706
 20
8.658512730205931
 30
0.0
 10
-686.8083073593046
 20
6.083231871496341
 30
0.0
 10
-686.0520931979057
 20
3.061131514865423
 30
0.0
 10
-685.1433066866691
 20
-0.5095694697118403
 30
0.0
 10
-684.1993381979047
 20
-4.150725127129356
 30
0.0
 10
-683.3368439793704
 20
-7.42293579714759
 30
0.0
 10
-682.5233688475234
 20
-10.4660476351322
 30
0.0
 10
-681.6401682614231
 20
-13.72567700323257
 30
0.0
 10
-680.6792590833073
 20
-17.21653074812721
 30
0.0
 10
-679.7376773683701
 20
-20.58129235470818
 30
0.0
 10
-678.8846685258367
 20
-23.58831403019904
 30
0.0
 10
-678.0408967267964
 20
-26.52731188062934
 30
0.0
 10
-677.0032515796177
 20
-30.0945386587913
 30
0.0
 10
-675.759471619836
 20
-34.2997805807532
 30
0.0
 10
-674.3566645961654
 20
-38.95164977270224
 30
0.0
 10
-672.993296635682
 20
-43.38707930564245
 30
0.0
 10
-671.8352714562036
 20
-47.09019873474652
 30
0.0
 10
-670.8423011720814
 20
-50.2250309649557
 30
0.0
 10
-669.9055898365851
 20
-53.15074956753649
 30
0.0
 10
-668.8723772583411
 20
-56.3390968324918
 30
0.0
 10
-667.855360216896
 20
-59.43777359683991
 30
0.0
 10
-666.7166287181841
 20
-62.86812196388608
 30
0.0
 10
-665.1723042117748
 20
-67.45991904492901
 30
0.0
 10
-663.1259728469727
 20
-73.42063432462028
 30
0.0
 10
-660.8618501376022
 20
-79.8555012622462
 30
0.0
 10
-658.5099094410352
 20
-86.39325225515246
 30
0.0
 10
-656.1797711695742
 20
-92.72701119514173
 30
0.0
 10
-653.8361809395171
 20
-98.95451181021039
 30
0.0
 10
-651.6984179031361
 20
-104.5257110162122
 30
0.0
 10
-649.6274496202702
 20
-109.8293136887985
 30
0.0
 10
-647.8723286783228
 20
-114.2477703595755
 30
0.0
 10
-646.4115501163536
 20
-117.8774216711507
 30
0.0
 10
-645.2435816916079
 20
-120.7538945343189
 30
0.0
 10
-643.960885077637
 20
-123.8836871864071
 30
0.0
 10
-642.5125731881429
 20
-127.3809518719976
 30
0.0
 10
-641.1122455068214
 20
-130.7234365484481
 30
0.0
 10
-639.9027012396933
 20
-133.5816201912418
 30
0.0
 10
-638.9714889878209
 20
-135.7662327733418
 30
0.0
 10
-638.0714006504841
 20
-137.8651413302748
 30
0.0
 10
-637.0475121371527
 20
-140.2374347982228
 30
0.0
 10
-635.6639882574008
 20
-143.4174988640677
 30
0.0
 10
-634.1028427958031
 20
-146.9672426847628
 30
0.0
 10
-632.4669272406732
 20
-150.6441727821141
 30
0.0
 10
-630.9452036287225
 20
-154.0303318462985
 30
0.0
 10
-629.4383908893475
 20
-157.3504563347397
 30
0.0
 10
-627.9487520393658
 20
-160.6008341850713
 30
0.0
 10
-626.4644063886733
 20
-163.8099003672705
 30
0.0
 10
-624.850262805362
 20
-167.267706950805
 30
0.0
 10
-622.9874620174851
 20
-171.2166067200329
 30
0.0
 10
-621.014490341508
 20
-175.3483192936178
 30
0.0
 10
-619.1545231318005
 20
-179.197544934885
 30
0.0
 10
-617.4131963324292
 20
-182.7659204998781
 30
0.0
 10
-615.8201239041601
 20
-185.9993864569388
 30
0.0
 10
-614.2431956688891
 20
-189.1712319525561
 30
0.0
 10
-612.8444656975205
 20
-191.9620693648975
 30
0.0
 10
-611.5702666912093
 20
-194.485214716273
 30
0.0
 10
-610.5161277471788
 20
-196.5595416235315
 30
0.0
 10
-609.5193721183589
 20
-198.5111138984548
 30
0.0
 10
-608.3616042262446
 20
-200.7662288518125
 30
0.0
 10
-606.6570737669648
 20
-204.0633543904671
 30
0.0
 10
-604.657059316512
 20
-207.8919722426928
 30
0.0
 10
-602.6466115874628
 20
-211.6968221426086
 30
0.0
 10
-600.9447507660775
 20
-214.8892119713634
 30
0.0
 10
-599.3415978422235
 20
-217.8733160358312
 30
0.0
 10
-597.6892279952771
 20
-220.9244572522818
 30
0.0
 10
-596.0689800594388
 20
-223.8918432660139
 30
0.0
 10
-594.4672203326814
 20
-226.8034204406775
 30
0.0
 10
-592.7450469986371
 20
-229.9107500823753
 30
0.0
 10
-590.7289337973905
 20
-233.5170645421037
 30
0.0
 10
-588.5002710099915
 20
-237.4634575956688
 30
0.0
 10
-585.6806481328649
 20
-242.4038441119099
 30
0.0
 10
-582.4844044156428
 20
-247.9281212237441
 30
0.0
 10
-578.9533897621717
 20
-253.9343354187453
 30
0.0
 10
-575.659977354202
 20
-259.4561108570436
 30
0.0
 10
-572.5237291943877
 20
-264.6443050209404
 30
0.0
 10
-568.5687667709334
 20
-271.1047977892597
 30
0.0
 10
-563.386196300907
 20
-279.4220944767212
 30
0.0
 10
-556.8886770729252
 20
-289.5948315864068
 30
0.0
 10
-549.8718220219267
 20
-300.2981128564635
 30
0.0
 10
-542.7673496034681
 20
-310.8560708134783
 30
0.0
 10
-535.863502457511
 20
-320.856118680796
 30
0.0
 10
-529.9531206467302
 20
-329.2218721285697
 30
0.0
 10
-524.9223848434708
 20
-336.2166355208034
 30
0.0
 10
-520.367366391547
 20
-342.4583373208743
 30
0.0
 10
-515.3554956631459
 20
-349.2222536062849
 30
0.0
 10
-510.7649964280196
 20
-355.3136768100757
 30
0.0
 10
-506.7477465097443
 20
-360.5705321120703
 30
0.0
 10
-503.5510071788291
 20
-364.7123760104954
 30
0.0
 10
-500.0900343420255
 20
-369.1542427243099
 30
0.0
 10
-496.0826019654294
 20
-374.233264647766
 30
0.0
 10
-492.9527550424564
 20
-378.1726391719005
 30
0.0
 10
-491.1350734
 20
-380.4124863530906
 30
0.0
 10
-490.9261494387998
 20
-380.6699339361257
 30
0.0
  0
SPLINE
  5
E0
330
DA
100
AcDbEntity
  8
0
  6
Continuous
 62
     7
370
    25
100
AcDbSpline
210
0.0
220
0.0
230
1.0
 70
     8
 71
     3
 72
    54
 73
    50
 74
     0
 42
0.000000001
 43
0.00000001
 40
0.0
 40
0.0
 40
0.0
 40
0.0
 40
0.009360412542313
 40
0.0314533167535774
 40
0.0515375013462788
 40
0.0732076783540724
 40
0.094634434108968
 40
0.1165249493574872
 40
0.1384095713913338
 40
0.1603174270499224
 40
0.1822767174743674
 40
0.2042958788825971
 40
0.2261288031133105
 40
0.2479781675304545
 40
0.2698267018895522
 40
0.2916739827155103
 40
0.3135195405287602
 40
0.3353629319695954
 40
0.3572038087594692
 40
0.3790419912888121
 40
0.4008775444998841
 40
0.4227108538542571
 40
0.4445426993424147
 40
0.466343190050464
 40
0.4880926073261944
 40
0.5098268637952622
 40
0.5315411454748771
 40
0.5532704778122622
 40
0.5750406873264906
 40
0.596909694008896
 40
0.6187176366242662
 40
0.6404729271278516
 40
0.6623563736923023
 40
0.6842955533653047
 40
0.7062045202989836
 40
0.7280079398892793
 40
0.7496794392879558
 40
0.771365787568802
 40
0.7931669439606425
 40
0.8150665377602803
 40
0.837047142654828
 40
0.859090157498862
 40
0.8811760753895305
 40
0.903284755940427
 40
0.9253922226560569
 40
0.947474236281264
 40
0.9695102555958351
 40
0.9914815635473387
 40
1.0
 40
1.0
 40
1.0
 40
1.0
 10
55.20346000041002
 20
-710.0782450991508
 30
0.0
 10
56.15421653394267
 20
-710.6220234869852
 30
0.0
 10
59.34899521165104
 20
-712.4492542632988
 30
0.0
 10
64.74094162661927
 20
-715.3901236773113
 30
0.0
 10
71.56600554833256
 20
-718.9574048127374
 30
0.0
 10
78.52867708000008
 20
-722.3620357828875
 30
0.0
 10
85.87222189227123
 20
-725.7096030920038
 30
0.0
 10
93.42435858498897
 20
-728.9125837279951
 30
0.0
 10
101.209136989713
 20
-731.9761666337546
 30
0.0
 10
109.1707330016906
 20
-734.8772501049846
 30
0.0
 10
117.3074027962103
 20
-737.6158017683454
 30
0.0
 10
125.5850092354504
 20
-740.1815381943402
 30
0.0
 10
133.9898425790054
 20
-742.5698903080777
 30
0.0
 10
142.5029937519379
 20
-744.7781914806286
 30
0.0
 10
151.1386272577691
 20
-746.8108574352873
 30
0.0
 10
159.8844501383448
 20
-748.6653744578986
 30
0.0
 10
168.7302426419462
 20
-750.3399123298908
 30
0.0
 10
177.6656420473583
 20
-751.8328040503214
 30
0.0
 10
186.6801984105942
 20
-753.1425455635563
 30
0.0
 10
195.7634136803717
 20
-754.2678070149308
 30
0.0
 10
204.9047899320175
 20
-755.2074338106048
 30
0.0
 10
214.0938678944135
 20
-755.9604605558505
 30
0.0
 10
223.3159135239617
 20
-756.5257971620578
 30
0.0
 10
232.553152914915
 20
-756.9029350655534
 30
0.0
 10
241.7927569519594
 20
-757.0937090882446
 30
0.0
 10
251.0257505546955
 20
-757.096967095547
 30
0.0
 10
260.2506889141948
 20
-756.9127131184019
 30
0.0
 10
269.4647625369756
 20
-756.541050387465
 30
0.0
 10
278.6739053477265
 20
-755.9815065069025
 30
0.0
 10
287.8571279993585
 20
-755.2360939462536
 30
0.0
 10
296.9893051381673
 20
-754.3014781213903
 30
0.0
 10
306.0647771171415
 20
-753.1826613183202
 30
0.0
 10
315.0897753817906
 20
-751.8793487845235
 30
0.0
 10
324.0567302675362
 20
-750.3910625767419
 30
0.0
 10
332.9230761745649
 20
-748.7231800966634
 30
0.0
 10
341.6531394564529
 20
-746.8805661866334
 30
0.0
 10
350.2417790760473
 20
-744.8642687987426
 30
0.0
 10
358.7101221160331
 20
-742.673117155327
 30
0.0
 10
367.0786887756302
 20
-740.3016912064481
 30
0.0
 10
375.34575552621
 20
-737.7488489465304
 30
0.0
 10
383.4944932859423
 20
-735.0177134991305
 30
0.0
 10
391.5080694341941
 20
-732.1119013957122
 30
0.0
 10
399.3695879129894
 20
-729.0353927803146
 30
0.0
 10
407.0623996424901
 20
-725.7930291327087
 30
0.0
 10
414.5681449088687
 20
-722.38918602432
 30
0.0
 10
421.875273647154
 20
-718.8325649321771
 30
0.0
 10
428.950119959816
 20
-715.117277471193
 30
0.0
 10
434.4475650446542
 20
-712.0679652697597
 30
0.0
 10
437.5030740128856
 20
-710.2083715482247
 30
0.0
 10
438.3567433198957
 20
-709.6888253449283
 30
0.0
  0
SPLINE
  5
E1
330
DA
100
AcDbEntity
  8
0
  6
Continuous
 62
     7
370
    25
100
AcDbSpline
210
0.0
220
0.0
230
1.0
 70
     8
 71
     3
 72
    17
 73
    13
 74
     0
 42
0.000000001
 43
0.00000001
 40
0.0
 40
0.0
 40
0.0
 40
0.0
 40
0.0045407458989682
 40
0.0269571288728593
 40
0.0510866939303918
 40
0.0809238113384275
 40
0.352426569003006
 40
0.6516076152021599
 40
0.8203296668755531
 40
0.9666497219272533
 40
0.986790700822354
 40
1.0
 40
1.0
 40
1.0
 40
1.0
 10
-431.9708138871793
 20
-428.7177764382913
 30
0.0
 10
-431.234552465526
 20
-429.1545632094002
 30
0.0
 10
-426.8635758750654
 20
-431.7476431880484
 30
0.0
 10
-418.5519360054836
 20
-436.4875095504567
 30
0.0
 10
-406.1907630998602
 20
-443.6871883126655
 30
0.0
 10
-353.4219413415271
 20
-474.2393491440996
 30
0.0
 10
-256.0361510031022
 20
-530.6289612051925
 30
0.0
 10
-135.9054766023477
 20
-599.942937847014
 30
0.0
 10
-36.15398271144196
 20
-657.4671771282865
 30
0.0
 10
18.56386673203661
 20
-688.8512089170372
 30
0.0
 10
47.63476068242783
 20
-705.6442245053319
 30
0.0
 10
53.12318333923857
 20
-708.7781647505145
 30
0.0
 10
55.29702479054652
 20
-710.0194483827883
 30
0.0
  0
SPLINE
  5
E3
330
DA
100
AcDbEntity
  8
0
  6
Continuous
 62
     7
370
    25
100
AcDbSpline
210
0.0
220
0.0
230
1.0
 70
     8
 71
     3
 72
    18
 73
    14
 74
     0
 42
0.000000001
 43
0.00000001
 40
0.0
 40
0.0
 40
0.0
 40
0.0
 40
0.0151936301574138
 40
0.1130078742948384
 40
0.2110482133398894
 40
0.3095774651754201
 40
0.4078912919829808
 40
0.50641028467238
 40
0.6052540728848171
 40
0.7045438214996679
 40
0.8041949956449688
 40
0.9070339173135336
 40
1.0
 40
1.0
 40
1.0
 40
1.0
 10
-488.9450550469596
 20
-383.0529081750373
 30
0.0
 10
-488.7285037176065
 20
-383.3201501843037
 30
0.0
 10
-487.1178283785094
 20
-385.3078549708868
 30
0.0
 10
-483.8432777361348
 20
-388.9103864787859
 30
0.0
 10
-479.1068461082806
 20
-393.8530536785624
 30
0.0
 10
-474.07170501659
 20
-398.672397763008
 30
0.0
 10
-468.7752020095081
 20
-403.3760818226817
 30
0.0
 10
-463.2181419199818
 20
-407.9532945731666
 30
0.0
 10
-457.3958218995494
 20
-412.410252098397
 30
0.0
 10
-451.3128785306469
 20
-416.7465513117016
 30
0.0
 10
-444.9062101988859
 20
-420.991709259063
 30
0.0
 10
-438.4863382665478
 20
-425.0033142393322
 30
0.0
 10
-434.1406761299369
 20
-427.5617128124537
 30
0.0
 10
-432.0774030953669
 20
-428.7764125800983
 30
0.0
  0
LWPOLYLINE
  5
E5
330
DA
100
AcDbEntity
  8
0
  6
Continuous
 62
     7
370
    25
100
AcDbPolyline
 90
      107
 70
   128
 43
0.0
 10
593.9696961967
 20
-16.3281622365
 10
602.2270528246
 20
-21.2384474067
 10
610.2287284072
 20
-26.2878343957
 10
617.967694857
 20
-31.4718881905
 10
625.4371548309
 20
-36.7860554968
 10
632.6305477007
 20
-42.2256687382
 10
639.5415553153
 20
-47.7859501554
 10
646.1641075502
 20
-53.4620160034
 10
652.4923876392
 20
-59.2488808403
 10
658.520837283
 20
-65.1414619067
 10
664.2441615318
 20
-71.1345835894
 10
669.6573334353
 20
-77.2229819682
 10
674.7555984587
 20
-83.4013094383
 10
679.5344786581
 20
-89.6641394081
 10
683.9897766142
 20
-96.0059710651
 10
688.1175791186
 20
-102.4212342072
 10
691.914260611
 20
-108.904294136
 10
695.3764863635
 20
-115.4494566048
 10
698.5012154098
 20
-122.0509728209
 10
701.2857032162
 20
-128.7030444945
 10
703.7275040918
 20
-135.3998289314
 10
705.824473337
 20
-142.1354441654
 10
707.5747691273
 20
-148.9039741237
 10
708.9768541305
 20
-155.6994738238
 10
710.0294968575
 20
-162.5159745951
 10
710.731772744
 20
-169.3474893209
 10
711.0830649619
 20
-176.1880176976
 10
711.0830649619
 20
-183.0315515044
 10
710.731772744
 20
-189.8720798811
 10
710.0294968575
 20
-196.7035946069
 10
708.9768541305
 20
-203.5200953782
 10
707.5747691273
 20
-210.3155950783
 10
705.824473337
 20
-217.0841250366
 10
703.7275040918
 20
-223.8197402706
 10
701.2857032162
 20
-230.5165247075
 10
698.5012154098
 20
-237.1685963811
 10
695.3764863635
 20
-243.7701125972
 10
691.914260611
 20
-250.315275066
 10
688.1175791186
 20
-256.7983349947
 10
683.9897766142
 20
-263.2135981369
 10
679.5344786581
 20
-269.5554297939
 10
674.7555984587
 20
-275.8182597637
 10
669.6573334353
 20
-281.9965872338
 10
664.2441615318
 20
-288.0849856126
 10
658.520837283
 20
-294.0781072953
 10
652.4923876392
 20
-299.9706883616
 10
646.1641075502
 20
-305.7575531986
 10
639.5415553153
 20
-311.4336190465
 10
632.6305477007
 20
-316.9939004638
 10
625.4371548309
 20
-322.4335137052
 10
617.967694857
 20
-327.7476810115
 10
610.2287284072
 20
-332.9317348063
 10
602.2270528246
 20
-337.9811217953
 10
593.9696961967
 20
-342.8914069655
 10
585.4639111826
 20
-347.6582774811
 10
576.7171686429
 20
-352.2775464711
 10
567.7371510775
 20
-356.7451567068
 10
558.5317458782
 20
-361.0571841656
 10
549.1090384007
 20
-365.2098414776
 10
539.4773048632
 20
-369.1994812516
 10
529.6450050772
 20
-373.0225992795
 10
519.6207750169
 20
-376.6758376135
 10
509.4134192341
 20
-380.1559875158
 10
499.0319031247
 20
-383.4599922769
 10
488.4853450545
 20
-386.5849499002
 10
477.7830083499
 20
-389.5281156511
 10
466.9342931622
 20
-392.2869044678
 10
455.9487282105
 20
-394.8588932315
 10
444.835962413
 20
-397.2418228952
 10
433.6057564117
 20
-399.4336004675
 10
422.2679739995
 20
-401.4323008508
 10
410.8325734568
 20
-403.2361685329
 10
399.3095988043
 20
-404.843619128
 10
387.7091709816
 20
-406.2532407688
 10
376.0414789575
 20
-407.4637953467
 10
364.3167707806
 20
-408.4742195989
 10
352.5453445786
 20
-409.2836260426
 10
340.7375395127
 20
-409.8913037541
 10
328.9037266966
 20
-410.2967189939
 10
317.0543000876
 20
-410.4995156746
 10
305.1996673566
 20
-410.4995156746
 10
293.3502407475
 20
-410.2967189939
 10
281.5164279315
 20
-409.8913037541
 10
269.7086228656
 20
-409.2836260426
 10
257.9371966636
 20
-408.4742195989
 10
246.2124884867
 20
-407.4637953467
 10
234.5447964626
 20
-406.2532407688
 10
222.9443686398
 20
-404.843619128
 10
211.4213939874
 20
-403.2361685329
 10
199.9859934446
 20
-401.4323008508
 10
188.6482110325
 20
-399.4336004675
 10
177.4180050312
 20
-397.2418228952
 10
166.3052392337
 20
-394.8588932315
 10
155.319674282
 20
-392.2869044678
 10
144.4709590942
 20
-389.5281156511
 10
133.7686223897
 20
-386.5849499002
 10
123.2220643195
 20
-383.4599922769
 10
112.8405482101
 20
-380.1559875158
 10
102.6331924272
 20
-376.6758376135
 10
92.6089623669
 20
-373.0225992795
 10
82.776662581
 20
-369.1994812516
 10
73.1449290435
 20
-365.2098414776
 10
63.722221566
 20
-361.0571841656
 10
54.5168163666
 20
-356.7451567068
 10
45.5367988012
 20
-352.2775464711
 10
36.7900562615
 20
-347.6582774811
 10
28.2842712496
 20
-342.8914069668
  0
LWPOLYLINE
  5
E7
330
DA
100
AcDbEntity
  8
0
  6
Continuous
 62
     7
370
    25
100
AcDbPolyline
 90
      107
 70
   128
 43
0.0
 10
-28.2842712475
 20
342.8914069655
 10
-36.7900562615
 20
347.6582774811
 10
-45.5367988012
 20
352.2775464711
 10
-54.5168163666
 20
356.7451567068
 10
-63.722221566
 20
361.0571841656
 10
-73.1449290435
 20
365.2098414776
 10
-82.776662581
 20
369.1994812516
 10
-92.6089623669
 20
373.0225992795
 10
-102.6331924272
 20
376.6758376135
 10
-112.8405482101
 20
380.1559875158
 10
-123.2220643195
 20
383.4599922769
 10
-133.7686223897
 20
386.5849499002
 10
-144.4709590942
 20
389.5281156511
 10
-155.319674282
 20
392.2869044678
 10
-166.3052392337
 20
394.8588932315
 10
-177.4180050312
 20
397.2418228952
 10
-188.6482110325
 20
399.4336004675
 10
-199.9859934446
 20
401.4323008508
 10
-211.4213939874
 20
403.2361685329
 10
-222.9443686399
 20
404.843619128
 10
-234.5447964626
 20
406.2532407688
 10
-246.2124884867
 20
407.4637953467
 10
-257.9371966636
 20
408.4742195989
 10
-269.7086228656
 20
409.2836260426
 10
-281.5164279315
 20
409.8913037541
 10
-293.3502407475
 20
410.2967189939
 10
-305.1996673566
 20
410.4995156746
 10
-317.0543000876
 20
410.4995156746
 10
-328.9037266966
 20
410.2967189939
 10
-340.7375395127
 20
409.8913037541
 10
-352.5453445786
 20
409.2836260426
 10
-364.3167707806
 20
408.4742195989
 10
-376.0414789575
 20
407.4637953467
 10
-387.7091709816
 20
406.2532407688
 10
-399.3095988043
 20
404.843619128
 10
-410.8325734568
 20
403.2361685329
 10
-422.2679739995
 20
401.4323008508
 10
-433.6057564117
 20
399.4336004675
 10
-444.835962413
 20
397.2418228952
 10
-455.9487282105
 20
394.8588932315
 10
-466.9342931622
 20
392.2869044678
 10
-477.7830083499
 20
389.5281156511
 10
-488.4853450545
 20
386.5849499002
 10
-499.0319031247
 20
383.4599922769
 10
-509.4134192341
 20
380.1559875158
 10
-519.6207750169
 20
376.6758376135
 10
-529.6450050772
 20
373.0225992795
 10
-539.4773048632
 20
369.1994812516
 10
-549.1090384007
 20
365.2098414776
 10
-558.5317458782
 20
361.0571841656
 10
-567.7371510775
 20
356.7451567068
 10
-576.7171686429
 20
352.2775464711
 10
-585.4639111826
 20
347.6582774811
 10
-593.9696961967
 20
342.8914069655
 10
-602.2270528246
 20
337.9811217953
 10
-610.2287284072
 20
332.9317348063
 10
-617.967694857
 20
327.7476810115
 10
-625.4371548309
 20
322.4335137052
 10
-632.6305477007
 20
316.9939004638
 10
-639.5415553153
 20
311.4336190465
 10
-646.1641075502
 20
305.7575531986
 10
-652.4923876392
 20
299.9706883616
 10
-658.520837283
 20
294.0781072953
 10
-664.2441615318
 20
288.0849856126
 10
-669.6573334353
 20
281.9965872338
 10
-674.7555984587
 20
275.8182597637
 10
-679.5344786581
 20
269.5554297939
 10
-683.9897766142
 20
263.2135981369
 10
-688.1175791186
 20
256.7983349947
 10
-691.914260611
 20
250.315275066
 10
-695.3764863635
 20
243.7701125972
 10
-698.5012154098
 20
237.1685963811
 10
-701.2857032162
 20
230.5165247075
 10
-703.7275040918
 20
223.8197402706
 10
-705.824473337
 20
217.0841250366
 10
-707.5747691273
 20
210.3155950783
 10
-708.9768541305
 20
203.5200953782
 10
-710.0294968575
 20
196.7035946069
 10
-710.731772744
 20
189.8720798811
 10
-711.0830649619
 20
183.0315515044
 10
-711.0830649619
 20
176.1880176976
 10
-710.731772744
 20
169.3474893209
 10
-710.0294968575
 20
162.5159745951
 10
-708.9768541305
 20
155.6994738238
 10
-707.5747691273
 20
148.9039741237
 10
-705.824473337
 20
142.1354441654
 10
-703.7275040918
 20
135.3998289314
 10
-701.2857032162
 20
128.7030444945
 10
-698.5012154098
 20
122.0509728209
 10
-695.3764863635
 20
115.4494566048
 10
-691.914260611
 20
108.904294136
 10
-688.1175791186
 20
102.4212342072
 10
-683.9897766142
 20
96.0059710651
 10
-679.5344786581
 20
89.6641394081
 10
-674.7555984587
 20
83.4013094383
 10
-669.6573334353
 20
77.2229819682
 10
-664.2441615318
 20
71.1345835894
 10
-658.520837283
 20
65.1414619067
 10
-652.4923876392
 20
59.2488808403
 10
-646.1641075502
 20
53.4620160034
 10
-639.5415553153
 20
47.7859501554
 10
-632.6305477007
 20
42.2256687382
 10
-625.4371548309
 20
36.7860554968
 10
-617.967694857
 20
31.4718881905
 10
-610.2287284072
 20
26.2878343957
 10
-602.2270528246
 20
21.2384474067
 10
-593.9696961967
 20
16.3281622365
  0
LWPOLYLINE
  5
E8
330
DA
100
AcDbEntity
  8
0
  6
Continuous
 62
     7
370
    25
100
AcDbPolyline
 90
      105
 70
   128
 43
0.0
 10
-38.8908729653
 20
336.7683461269
 10
-47.2374261231
 20
341.4433123564
 10
-55.8247602994
 20
345.970616655
 10
-64.645040144
 20
350.3461281698
 10
-73.6902177601
 20
354.5658545482
 10
-82.9520400469
 20
358.6259455812
 10
-92.4220562306
 20
362.5226967156
 10
-102.0916255745
 20
366.2525524349
 10
-111.9519252637
 20
369.812109503
 10
-121.9939584548
 20
373.1981200696
 10
-132.2085624852
 20
376.4074946337
 10
-142.5864172334
 20
379.4373048622
 10
-153.1180536228
 20
382.2847862624
 10
-163.7938622615
 20
384.9473407039
 10
-174.6041022107
 20
387.4225387895
 10
-185.538909872
 20
389.7081220716
 10
-196.5883079878
 20
391.8020051132
 10
-207.7422147444
 20
393.7022773904
 10
-218.9904529714
 20
395.4072050358
 10
-230.3227594271
 20
396.9152324205
 10
-241.7287941637
 20
398.2249835737
 10
-253.1981499613
 20
399.3352634376
 10
-264.7203618238
 20
400.2450589586
 10
-276.2849165277
 20
400.9535400109
 10
-287.8812622145
 20
401.4600601546
 10
-299.4988180187
 20
401.7641572248
 10
-311.1269837221
 20
401.8655537539
 10
-322.7551494254
 20
401.7641572248
 10
-334.3727052297
 20
401.4600601546
 10
-345.9690509165
 20
400.9535400109
 10
-357.5336056204
 20
400.2450589586
 10
-369.0558174829
 20
399.3352634376
 10
-380.5251732804
 20
398.2249835737
 10
-391.931208017
 20
396.9152324205
 10
-403.2635144728
 20
395.4072050358
 10
-414.5117526997
 20
393.7022773904
 10
-425.6656594563
 20
391.8020051132
 10
-436.7150575721
 20
389.7081220716
 10
-447.6498652335
 20
387.4225387895
 10
-458.4601051826
 20
384.9473407039
 10
-469.1359138214
 20
382.2847862624
 10
-479.6675502107
 20
379.4373048622
 10
-490.0454049589
 20
376.4074946337
 10
-500.2600089894
 20
373.1981200696
 10
-510.3020421805
 20
369.812109503
 10
-520.1623418697
 20
366.2525524349
 10
-529.8319112136
 20
362.5226967156
 10
-539.3019273972
 20
358.6259455812
 10
-548.5637496841
 20
354.5658545482
 10
-557.6089273001
 20
350.3461281698
 10
-566.4292071448
 20
345.970616655
 10
-575.0165413211
 20
341.4433123564
 10
-583.3630944789
 20
336.7683461269
 10
-591.4612509643
 20
331.9499835506
 10
-599.303621768
 20
326.992621051
 10
-606.8830512676
 20
321.9007818796
 10
-614.1926237566
 20
316.6791119882
 10
-621.2256697542
 20
311.3323757905
 10
-627.9757720911
 20
305.8654518144
 10
-634.4367717646
 20
300.283328251
 10
-640.6027735581
 20
294.5910984029
 10
-646.4681514204
 20
288.7939560374
 10
-652.0275535986
 20
282.8971906468
 10
-657.2759075218
 20
276.9061826228
 10
-662.208424429
 20
270.8263983471
 10
-666.8206037389
 20
264.6633852034
 10
-671.108237156
 20
258.422766516
 10
-675.0674125104
 20
252.1102364191
 10
-678.6945173279
 20
245.7315546609
 10
-681.9862421254
 20
239.2925413486
 10
-684.9395834311
 20
232.7990716376
 10
-687.5518465249
 20
226.2570703711
 10
-689.8206478967
 20
219.672506674
 10
-691.743917422
 20
213.0513885065
 10
-693.3199002498
 20
206.3997571823
 10
-694.5471584047
 20
199.723681856
 10
-695.4245720981
 20
193.0292539859
 10
-695.9513407506
 20
186.3225817756
 10
-696.1269837221
 20
179.609784601
 10
-695.9513407506
 20
172.8969874264
 10
-695.4245720981
 20
166.1903152161
 10
-694.5471584047
 20
159.495887346
 10
-693.3199002498
 20
152.8198120197
 10
-691.743917422
 20
146.1681806954
 10
-689.8206478967
 20
139.547062528
 10
-687.5518465249
 20
132.9624988309
 10
-684.9395834311
 20
126.4204975644
 10
-681.9862421254
 20
119.9270278534
 10
-678.6945173279
 20
113.4880145411
 10
-675.0674125104
 20
107.1093327829
 10
-671.108237156
 20
100.796802686
 10
-666.8206037389
 20
94.5561839986
 10
-662.208424429
 20
88.3931708549
 10
-657.2759075218
 20
82.3133865792
 10
-652.0275535986
 20
76.3223785552
 10
-646.4681514204
 20
70.4256131646
 10
-640.6027735581
 20
64.628470799
 10
-634.4367717646
 20
58.936240951
 10
-627.9757720911
 20
53.3541173876
 10
-621.2256697542
 20
47.8871934115
 10
-614.1926237566
 20
42.5404572138
 10
-606.8830512676
 20
37.3187873224
 10
-599.303621768
 20
32.2269481509
 10
-591.4612509643
 20
27.2695856514
 10
-583.3630944784
 20
22.4512230748
  0
LWPOLYLINE
  5
EA
330
DA
100
AcDbEntity
  8
0
  6
Continuous
 62
     7
370
    25
100
AcDbPolyline
 90
      105
 70
   128
 43
0.0
 10
38.8908729676
 20
-336.7683461282
 10
47.2374261255
 20
-341.4433123577
 10
55.8247603019
 20
-345.9706166563
 10
64.6450401466
 20
-350.346128171
 10
73.6902177627
 20
-354.5658545494
 10
82.9520400496
 20
-358.6259455823
 10
92.4220562333
 20
-362.5226967167
 10
102.0916255773
 20
-366.252552436
 10
111.9519252665
 20
-369.812109504
 10
121.9939584577
 20
-373.1981200706
 10
132.2085624882
 20
-376.4074946345
 10
142.5864172364
 20
-379.437304863
 10
153.1180536258
 20
-382.2847862632
 10
163.7938622646
 20
-384.9473407047
 10
174.6041022138
 20
-387.4225387902
 10
185.5389098752
 20
-389.7081220723
 10
196.588307991
 20
-391.8020051138
 10
207.7422147476
 20
-393.7022773909
 10
218.9904529746
 20
-395.4072050362
 10
230.3227594304
 20
-396.9152324209
 10
241.728794167
 20
-398.224983574
 10
253.1981499646
 20
-399.3352634379
 10
264.7203618271
 20
-400.2450589588
 10
276.284916531
 20
-400.9535400111
 10
287.8812622178
 20
-401.4600601547
 10
299.4988180221
 20
-401.7641572248
 10
311.1269837254
 20
-401.8655537539
 10
322.7551494287
 20
-401.7641572247
 10
334.372705233
 20
-401.4600601544
 10
345.9690509198
 20
-400.9535400108
 10
357.5336056237
 20
-400.2450589584
 10
369.0558174862
 20
-399.3352634373
 10
380.5251732837
 20
-398.2249835733
 10
391.9312080203
 20
-396.9152324201
 10
403.263514476
 20
-395.4072050353
 10
414.5117527029
 20
-393.7022773899
 10
425.6656594595
 20
-391.8020051126
 10
436.7150575753
 20
-389.708122071
 10
447.6498652366
 20
-387.4225387888
 10
458.4601051857
 20
-384.9473407032
 10
469.1359138244
 20
-382.2847862616
 10
479.6675502137
 20
-379.4373048614
 10
490.0454049619
 20
-376.4074946328
 10
500.2600089923
 20
-373.1981200687
 10
510.3020421833
 20
-369.812109502
 10
520.1623418724
 20
-366.2525524339
 10
529.8319112163
 20
-362.5226967146
 10
539.3019273999
 20
-358.6259455801
 10
548.5637496867
 20
-354.5658545471
 10
557.6089273027
 20
-350.3461281685
 10
566.4292071473
 20
-345.9706166537
 10
575.0165413235
 20
-341.4433123551
 10
583.3630944812
 20
-336.7683461255
 10
591.4612509665
 20
-331.9499835492
 10
599.3036217702
 20
-326.9926210496
 10
606.8830512697
 20
-321.9007818781
 10
614.1926237586
 20
-316.6791119867
 10
621.2256697562
 20
-311.3323757889
 10
627.975772093
 20
-305.8654518128
 10
634.4367717664
 20
-300.2833282494
 10
640.6027735599
 20
-294.5910984013
 10
646.468151422
 20
-288.7939560357
 10
652.0275536001
 20
-282.8971906451
 10
657.2759075232
 20
-276.9061826211
 10
662.2084244304
 20
-270.8263983454
 10
666.8206037402
 20
-264.6633852016
 10
671.1082371571
 20
-258.4227665142
 10
675.0674125115
 20
-252.1102364173
 10
678.6945173289
 20
-245.7315546591
 10
681.9862421263
 20
-239.2925413467
 10
684.9395834319
 20
-232.7990716357
 10
687.5518465256
 20
-226.2570703692
 10
689.8206478973
 20
-219.6725066721
 10
691.7439174225
 20
-213.0513885047
 10
693.3199002502
 20
-206.3997571804
 10
694.547158405
 20
-199.7236818541
 10
695.4245720983
 20
-193.029253984
 10
695.9513407507
 20
-186.3225817737
 10
696.1269837221
 20
-179.6097845991
 10
695.9513407505
 20
-172.8969874244
 10
695.4245720979
 20
-166.1903152142
 10
694.5471584044
 20
-159.4958873441
 10
693.3199002494
 20
-152.8198120178
 10
691.7439174215
 20
-146.1681806935
 10
689.8206478961
 20
-139.5470625261
 10
687.5518465242
 20
-132.962498829
 10
684.9395834303
 20
-126.4204975626
 10
681.9862421245
 20
-119.9270278516
 10
678.6945173269
 20
-113.4880145392
 10
675.0674125093
 20
-107.1093327811
 10
671.1082371548
 20
-100.7968026842
 10
666.8206037377
 20
-94.5561839968
 10
662.2084244277
 20
-88.3931708531
 10
657.2759075203
 20
-82.3133865774
 10
652.027553597
 20
-76.3223785535
 10
646.4681514187
 20
-70.425613163
 10
640.6027735564
 20
-64.6284707974
 10
634.4367717628
 20
-58.9362409494
 10
627.9757720893
 20
-53.354117386
 10
621.2256697522
 20
-47.88719341
 10
614.1926237545
 20
-42.5404572123
 10
606.8830512655
 20
-37.3187873209
 10
599.3036217658
 20
-32.2269481495
 10
591.461250962
 20
-27.26958565
 10
583.3630944789
 20
-22.4512230751
  0
SPLINE
  5
EC
330
DA
100
AcDbEntity
  8
0
  6
Continuous
 62
     7
370
    25
100
AcDbSpline
210
0.0
220
0.0
230
1.0
 70
     8
 71
     3
 72
     9
 73
     5
 74
     0
 42
0.000000001
 43
0.00000001
 40
0.0
 40
0.0
 40
0.0
 40
0.0
 40
0.6958258536629321
 40
1.0
 40
1.0
 40
1.0
 40
1.0
 10
438.5248389538172
 20
-709.5687567475088
 30
0.0
 10
440.0568167726124
 20
-708.6732074792828
 30
0.0
 10
442.258485208372
 20
-707.3861767322767
 30
0.0
 10
444.3148507454458
 20
-706.0189388900395
 30
0.0
 10
444.9403439772422
 20
-705.6030604865374
 30
0.0
  0
LWPOLYLINE
  5
ED
330
DA
100
AcDbEntity
  8
0
  6
Continuous
 62
     7
370
    25
100
AcDbPolyline
 90
        4
 70
   128
 43
0.0
 10
52.3939273988
 20
-706.8915172161
 10
52.4255757878
 20
-706.9096368762
 10
56.0465455811
 20
-708.9825593732
 10
56.0465880379
 20
-708.9825836765
  0
SPLINE
  5
EE
330
DA
100
AcDbEntity
  8
0
  6
Continuous
 62
     7
370
    25
100
AcDbSpline
210
0.0
220
0.0
230
1.0
 70
     8
 71
     3
 72
    14
 73
    10
 74
     0
 42
0.000000001
 43
0.00000001
 40
0.0
 40
0.0
 40
0.0
 40
0.0
 40
0.2500000000000001
 40
0.2500000000000001
 40
0.5000000000000001
 40
0.5000000000000001
 40
0.75
 40
0.75
 40
1.0
 40
1.0
 40
1.0
 40
1.0
 10
-434.8026448388267
 20
-425.6389226931489
 30
0.0
 10
-394.2458654534945
 20
-449.2451893351334
 30
0.0
 10
-353.6709553174197
 20
-472.7922965654247
 30
0.0
 10
-272.503496661036
 20
-519.8107926754835
 30
0.0
 10
-231.910667384785
 20
-543.2820396879195
 30
0.0
 10
-150.7111577823286
 20
-590.1575186833859
 30
0.0
 10
-110.104448462781
 20
-613.5617674679777
 30
0.0
 10
-28.87298923945761
 20
-660.2941712442287
 30
0.0
 10
11.75147141008398
 20
-683.6224631549229
 30
0.0
 10
52.39392739876247
 20
-706.8915172161037
 30
0.0
  0
SPLINE
  5
F1
330
DA
100
AcDbEntity
  8
0
  6
Continuous
 62
     7
370
    25
100
AcDbSpline
210
0.0
220
0.0
230
1.0
 70
     8
 71
     3
 72
    14
 73
    10
 74
     0
 42
0.000000001
 43
0.00000001
 40
0.0
 40
0.0
 40
0.0
 40
0.0
 40
0.25
 40
0.25
 40
0.5
 40
0.5
 40
0.75
 40
0.75
 40
1.0
 40
1.0
 40
1.0
 40
1.0
 10
-59.53237971913047
 20
-104.08266723663
 30
0.0
 10
-18.3199733513805
 20
-127.9707071562823
 30
0.0
 10
22.88001875707016
 20
-151.8151881994256
 30
0.0
 10
105.2728619738021
 20
-199.4550553634805
 30
0.0
 10
146.4651927502211
 20
-223.2503030993703
 30
0.0
 10
228.8472328905763
 20
-270.8084488690806
 30
0.0
 10
270.036952608618
 20
-294.5713534734757
 30
0.0
 10
352.4080899785352
 20
-342.0477256622832
 30
0.0
 10
393.5900390105738
 20
-365.7613381338161
 30
0.0
 10
434.7594796189391
 20
-389.4313405952835
 30
0.0
  0
SPLINE
  5
F3
330
DA
100
AcDbEntity
  8
0
  6
Continuous
 62
     7
370
    25
100
AcDbSpline
210
0.0
220
0.0
230
1.0
 70
     8
 71
     3
 72
     8
 73
     4
 74
     0
 42
0.000000001
 43
0.00000001
 40
0.0
 40
0.0
 40
0.0
 40
0.0
 40
1.0
 40
1.0
 40
1.0
 40
1.0
 10
242.1723167724332
 20
119.3842743803473
 30
0.0
 10
261.0592066762857
 20
108.5165608594149
 30
0.0
 10
279.9153875079269
 20
97.63111936844551
 30
0.0
 10
298.7408592673568
 20
86.7279499074389
 30
0.0
  0
SPLINE
  5
F4
330
DA
100
AcDbEntity
  8
0
  6
Continuous
 62
     7
370
    25
100
AcDbSpline
210
0.0
220
0.0
230
1.0
 70
     8
 71
     3
 72
    51
 73
    47
 74
     0
 42
0.000000001
 43
0.00000001
 40
0.0
 40
0.0
 40
0.0
 40
0.0
 40
0.0625000000000018
 40
0.0625000000000018
 40
0.0937500000000023
 40
0.0937500000000023
 40
0.1250000000000029
 40
0.1250000000000029
 40
0.1875000000000039
 40
0.1875000000000039
 40
0.2187500000000045
 40
0.2187500000000045
 40
0.2500000000000051
 40
0.2500000000000051
 40
0.3125000000000052
 40
0.3125000000000052
 40
0.3437500000000048
 40
0.3437500000000048
 40
0.3750000000000044
 40
0.4062500000000039
 40
0.4062500000000039
 40
0.4375000000000035
 40
0.4375000000000035
 40
0.5000000000000031
 40
0.5000000000000031
 40
0.5312500000000036
 40
0.5312500000000036
 40
0.562500000000004
 40
0.562500000000004
 40
0.625000000000004
 40
0.625000000000004
 40
0.6562500000000042
 40
0.6562500000000042
 40
0.6875000000000043
 40
0.6875000000000043
 40
0.7500000000000031
 40
0.7500000000000031
 40
0.8125000000000019
 40
0.8125000000000019
 40
0.8437500000000016
 40
0.8437500000000016
 40
0.8750000000000012
 40
0.8750000000000012
 40
0.9375000000000007
 40
0.9375000000000007
 40
1.0
 40
1.0
 40
1.0
 40
1.0
 10
240.9170710286719
 20
102.3288201991112
 30
0.0
 10
240.4480896747943
 20
102.5984914002276
 30
0.0
 10
239.9916111284934
 20
102.9194245582585
 30
0.0
 10
239.3248343822651
 20
103.4745181937844
 30
0.0
 10
239.105587137451
 20
103.6719229938045
 30
0.0
 10
238.6732356610682
 20
104.0920331835517
 30
0.0
 10
238.4596640011536
 20
104.3154496675771
 30
0.0
 10
237.8421814417737
 20
105.0092782783341
 30
0.0
 10
237.4565929696337
 20
105.5072506211824
 30
0.0
 10
236.9167461531995
 20
106.3067347580573
 30
0.0
 10
236.7425764713545
 20
106.5832372465831
 30
0.0
 10
236.4108583455596
 20
107.1490058563696
 30
0.0
 10
236.2544087504781
 20
107.4362090702515
 30
0.0
 10
235.8123508323282
 20
108.3103446173792
 30
0.0
 10
235.5537753809228
 20
108.9096844469606
 30
0.0
 10
235.2211764367613
 20
109.8340572516558
 30
0.0
 10
235.1200188257791
 20
110.145624022811
 30
0.0
 10
234.9405565019389
 20
110.7637617693574
 30
0.0
 10
234.782723506254
 20
111.3801839935959
 30
0.0
 10
234.6674670045127
 20
111.9931971770436
 30
0.0
 10
234.5737785432546
 20
112.6044699119726
 30
0.0
 10
234.5376129339093
 20
112.9108955178854
 30
0.0
 10
234.4638227649414
 20
113.8133969966689
 30
0.0
 10
234.4600617852464
 20
114.3916422666222
 30
0.0
 10
234.5208724719476
 20
115.2247010237612
 30
0.0
 10
234.5522980374551
 20
115.4966287044338
 30
0.0
 10
234.6381671083304
 20
116.0286041178926
 30
0.0
 10
234.6923818532648
 20
116.2865610000491
 30
0.0
 10
234.8859969204532
 20
117.026978539165
 30
0.0
 10
235.0567255542491
 20
117.4805397143403
 30
0.0
 10
235.375930503922
 20
118.1003649747666
 30
0.0
 10
235.4936712537036
 20
118.2977698404053
 30
0.0
 10
235.7464830319627
 20
118.6646717883806
 30
0.0
 10
235.8816140608346
 20
118.834672366763
 30
0.0
 10
236.3126312868521
 20
119.3052701989873
 30
0.0
 10
236.6338886304038
 20
119.5668479687724
 30
0.0
 10
237.3473172345954
 20
119.9815499988124
 30
0.0
 10
237.7291767299092
 20
120.1283647365699
 30
0.0
 10
238.3349467020705
 20
120.2598440722894
 30
0.0
 10
238.5425961584376
 20
120.2888802767823
 30
0.0
 10
238.9696299033494
 20
120.3167480188967
 30
0.0
 10
239.1900269179917
 20
120.3153832376944
 30
0.0
 10
239.8553994529819
 20
120.2654620299049
 30
0.0
 10
240.3079114267721
 20
120.1722666521989
 30
0.0
 10
241.2307582061794
 20
119.8675703292729
 30
0.0
 10
241.7035051610305
 20
119.6540334732391
 30
0.0
 10
242.1723167724331
 20
119.3842743803473
 30
0.0
  0
SPLINE
  5
F5
330
DA
100
AcDbEntity
  8
0
  6
Continuous
 62
     7
370
    25
100
AcDbSpline
210
0.0
220
0.0
230
1.0
 70
     8
 71
     3
 72
     8
 73
     4
 74
     0
 42
0.000000001
 43
0.00000001
 40
0.0
 40
0.0
 40
0.0
 40
0.0
 40
1.0
 40
1.0
 40
1.0
 40
1.0
 10
297.4856135235956
 20
69.67249572620285
 30
0.0
 10
278.6666270724029
 20
80.57940907596392
 30
0.0
 10
259.8104462407615
 20
91.4648505669334
 30
0.0
 10
240.9170710286717
 20
102.3288201991113
 30
0.0
  0
SPLINE
  5
F6
330
DA
100
AcDbEntity
  8
0
  6
Continuous
 62
     7
370
    25
100
AcDbSpline
210
0.0
220
0.0
230
1.0
 70
     8
 71
     3
 72
    51
 73
    47
 74
     0
 42
0.000000001
 43
0.00000001
 40
0.0
 40
0.0
 40
0.0
 40
0.0
 40
0.0625000000000011
 40
0.0625000000000011
 40
0.0937500000000016
 40
0.0937500000000016
 40
0.1250000000000021
 40
0.1250000000000021
 40
0.1875000000000035
 40
0.1875000000000035
 40
0.2187500000000037
 40
0.2187500000000037
 40
0.2500000000000039
 40
0.2500000000000039
 40
0.3125000000000054
 40
0.3125000000000054
 40
0.3437500000000059
 40
0.3437500000000059
 40
0.3750000000000063
 40
0.4062500000000067
 40
0.4062500000000067
 40
0.437500000000007
 40
0.437500000000007
 40
0.5000000000000064
 40
0.5000000000000064
 40
0.5312500000000063
 40
0.5312500000000063
 40
0.5625000000000062
 40
0.5625000000000062
 40
0.625000000000006
 40
0.625000000000006
 40
0.6562500000000051
 40
0.6562500000000051
 40
0.6875000000000041
 40
0.6875000000000041
 40
0.7500000000000024
 40
0.7500000000000024
 40
0.8125000000000008
 40
0.8125000000000008
 40
0.8437500000000006
 40
0.8437500000000006
 40
0.8750000000000003
 40
0.8750000000000003
 40
0.9375000000000002
 40
0.9375000000000002
 40
1.0
 40
1.0
 40
1.0
 40
1.0
 10
298.7408592673569
 20
86.7279499074389
 30
0.0
 10
299.2081502995943
 20
86.4573084394746
 30
0.0
 10
299.6640308551264
 20
86.13603113916854
 30
0.0
 10
300.3313901833745
 20
85.58126738059788
 30
0.0
 10
300.5510783975334
 20
85.38411369587686
 30
0.0
 10
300.9847793655215
 20
84.96477332213607
 30
0.0
 10
301.1992924718296
 20
84.74185111144885
 30
0.0
 10
301.8202062655812
 20
84.04977327646293
 30
0.0
 10
302.2088574201173
 20
83.5533797783777
 30
0.0
 10
302.7540526900644
 20
82.75666585008531
 30
0.0
 10
302.9301107710764
 20
82.48120910107696
 30
0.0
 10
303.265921962785
 20
81.91731265235866
 30
0.0
 10
303.4244636511627
 20
81.63108201642919
 30
0.0
 10
303.8728170498104
 20
80.75991655059897
 30
0.0
 10
304.1356151543843
 20
80.16262620183105
 30
0.0
 10
304.4741433801087
 20
79.24122337169912
 30
0.0
 10
304.5772552457979
 20
78.93047142613705
 30
0.0
 10
304.7602941318195
 20
78.3139440086171
 30
0.0
 10
304.9214211919219
 20
77.69906178690385
 30
0.0
 10
305.0393198154906
 20
77.08739454920091
 30
0.0
 10
305.1352832832752
 20
76.47734615038951
 30
0.0
 10
305.172407576904
 20
76.17148282007317
 30
0.0
 10
305.2484442523127
 20
75.27014364593695
 30
0.0
 10
305.2528262819474
 20
74.69237651247948
 30
0.0
 10
305.1916669266803
 20
73.85951535658839
 30
0.0
 10
305.1599119473908
 20
73.58756726259838
 30
0.0
 10
305.0729672915929
 20
73.05536865858672
 30
0.0
 10
305.0179984579559
 20
72.79715681071183
 30
0.0
 10
304.8215888202482
 20
72.05574435726378
 30
0.0
 10
304.6482697419361
 20
71.60114869241266
 30
0.0
 10
304.3243762194254
 20
70.97928118053112
 30
0.0
 10
304.2049296588876
 20
70.78110848730526
 30
0.0
 10
303.9485290823263
 20
70.41251460935302
 30
0.0
 10
303.8115223590807
 20
70.24160400332643
 30
0.0
 10
303.3747372071749
 20
69.76813526996837
 30
0.0
 10
303.0494444281729
 20
69.50445424086301
 30
0.0
 10
302.3281341619413
 20
69.08546048676864
 30
0.0
 10
301.9423848775938
 20
68.93645804908164
 30
0.0
 10
301.3316270669924
 20
68.80209776471827
 30
0.0
 10
301.1224363308385
 20
68.77215634706282
 30
0.0
 10
300.6926320528791
 20
68.7426313740954
 30
0.0
 10
300.4709610332222
 20
68.74323961369252
 30
0.0
 10
299.8022900517277
 20
68.79126796453436
 30
0.0
 10
299.3484277008176
 20
68.88367204379428
 30
0.0
 10
298.4248920664867
 20
69.18787842889348
 30
0.0
 10
297.9527526183891
 20
69.40175608555258
 30
0.0
 10
297.4856135235955
 20
69.67249572620285
 30
0.0
  0
SPLINE
  5
F9
330
DA
100
AcDbEntity
  8
0
  6
Continuous
 62
     7
370
    25
100
AcDbSpline
210
0.0
220
0.0
230
1.0
 70
     8
 71
     3
 72
     9
 73
     5
 74
     0
 42
0.000000001
 43
0.00000001
 40
0.0
 40
0.0
 40
0.0
 40
0.0
 40
0.7177089702657324
 40
1.0
 40
1.0
 40
1.0
 40
1.0
 10
301.0389020986299
 20
71.72376555806412
 30
0.0
 10
301.850440836614
 20
71.30781055599664
 30
0.0
 10
302.9811759557302
 20
70.72825112550294
 30
0.0
 10
303.9799285819732
 20
70.88349441581079
 30
0.0
 10
304.2618674892851
 20
70.92731820409112
 30
0.0
  0
SPLINE
  5
FA
330
DA
100
AcDbEntity
  8
0
  6
Continuous
 62
     7
370
    25
100
AcDbSpline
210
0.0
220
0.0
230
1.0
 70
     8
 71
     3
 72
     8
 73
     4
 74
     0
 42
0.000000001
 43
0.00000001
 40
0.0
 40
0.0
 40
0.0
 40
0.0
 40
1.0
 40
1.0
 40
1.0
 40
1.0
 10
244.4703596037062
 20
104.3800900309726
 30
0.0
 10
263.363579653177
 20
93.51603082532131
 30
0.0
 10
282.2197604848181
 20
82.63058933435182
 30
0.0
 10
301.0389020986298
 20
71.72376555806412
 30
0.0
  0
SPLINE
  5
FB
330
DA
100
AcDbEntity
  8
0
  6
Continuous
 62
     7
370
    25
100
AcDbSpline
210
0.0
220
0.0
230
1.0
 70
     8
 71
     3
 72
    14
 73
    10
 74
     0
 42
0.000000001
 43
0.00000001
 40
0.0
 40
0.0
 40
0.0
 40
0.0
 40
0.1177001238835936
 40
0.2839407938542233
 40
0.4505591448103278
 40
0.6171714398311345
 40
0.7833168215487222
 40
0.9487168989251393
 40
1.0
 40
1.0
 40
1.0
 40
1.0
 10
239.1426303947115
 20
120.2989431383683
 30
0.0
 10
238.8524011383965
 20
119.8292008816387
 30
0.0
 10
238.1522495776444
 20
118.6959906106403
 30
0.0
 10
237.9052116292886
 20
116.0518589330547
 30
0.0
 10
238.3495029996928
 20
112.8717583038562
 30
0.0
 10
239.5831169765588
 20
109.6595502954121
 30
0.0
 10
241.4357284249179
 20
106.8381481557386
 30
0.0
 10
243.1897176090318
 20
105.168886937821
 30
0.0
 10
244.2252717032072
 20
104.5310491425928
 30
0.0
 10
244.4703596037062
 20
104.3800900309726
 30
0.0
  0
SPLINE
  5
FD
330
DA
100
AcDbEntity
  8
0
  6
Continuous
 62
     8
370
    25
100
AcDbSpline
210
0.0
220
0.0
230
1.0
 70
     8
 71
     3
 72
    46
 73
    42
 74
     0
 42
0.000000001
 43
0.00000001
 40
0.0
 40
0.0
 40
0.0
 40
0.0
 40
0.0000001410893188
 40
0.0258429999121999
 40
0.0516858724390708
 40
0.0777044975117456
 40
0.1037231125345328
 40
0.1302959018711186
 40
0.1568687080945266
 40
0.1836328133593063
 40
0.2103969250167661
 40
0.2377509146654531
 40
0.2651048969178683
 40
0.2926671753505808
 40
0.3202294736112826
 40
0.3484504111607674
 40
0.3766713262359253
 40
0.4051202143699367
 40
0.4335691373177899
 40
0.459627308299225
 40
0.4856854714050973
 40
0.5119217822061426
 40
0.5381581258217633
 40
0.5649542419134638
 40
0.5917503602877783
 40
0.6187392672147203
 40
0.6457281873036264
 40
0.6717394047835998
 40
0.6977506331334239
 40
0.7239371983879345
 40
0.7501237491579535
 40
0.7768621272346898
 40
0.8036005260049275
 40
0.8305289074007257
 40
0.8574572729483775
 40
0.8834765667622477
 40
0.9094958861899495
 40
0.9356899264131154
 40
0.9618839630944455
 40
0.9886281454262722
 40
1.0
 40
1.0
 40
1.0
 40
1.0
 10
56.04658803787171
 20
-708.9825836765064
 30
0.0
 10
56.04660234870096
 20
-708.982592086409
 30
0.0
 10
58.66788341267367
 20
-710.5230142426053
 30
0.0
 10
64.01622854368446
 20
-713.5419119195114
 30
0.0
 10
72.35799246343755
 20
-717.8859670949547
 30
0.0
 10
81.00847207184317
 20
-722.03701380041
 30
0.0
 10
90.01789773978471
 20
-726.0148166576108
 30
0.0
 10
99.35930912248489
 20
-729.7972103569208
 30
0.0
 10
109.0449783155476
 20
-733.3804938661846
 30
0.0
 10
118.9946182617696
 20
-736.7291467730005
 30
0.0
 10
129.2663320991005
 20
-739.8590105573502
 30
0.0
 10
139.8240477200658
 20
-742.749401018521
 30
0.0
 10
150.6802110769501
 20
-745.3951538931345
 30
0.0
 10
161.7399950736248
 20
-747.766813778536
 30
0.0
 10
173.0725106584089
 20
-749.8754567735874
 30
0.0
 10
184.6326399858852
 20
-751.7025874744177
 30
0.0
 10
196.4323697648609
 20
-753.241227744404
 30
0.0
 10
208.358852174572
 20
-754.4696738568101
 30
0.0
 10
220.0514027793358
 20
-755.3583812387178
 30
0.0
 10
231.4491285729295
 20
-755.9326805592561
 30
0.0
 10
242.554547514055
 20
-756.2225682539938
 30
0.0
 10
253.687159061283
 20
-756.2415177364925
 30
0.0
 10
264.9070907571935
 20
-755.9864008484606
 30
0.0
 10
276.1692457061404
 20
-755.4507755449558
 30
0.0
 10
287.4797069513347
 20
-754.6279115528057
 30
0.0
 10
298.7386145276852
 20
-753.5199654967467
 30
0.0
 10
309.7900749562055
 20
-752.1439869882653
 30
0.0
 10
320.5918609655603
 20
-750.5165460811572
 30
0.0
 10
331.1553919820803
 20
-748.6489240917587
 30
0.0
 10
341.5953538067149
 20
-746.5217349731133
 30
0.0
 10
351.9654164860803
 20
-744.1202453397524
 30
0.0
 10
362.2198842454305
 20
-741.446347717812
 30
0.0
 10
372.360851323929
 20
-738.4928701583748
 30
0.0
 10
382.297401209156
 20
-735.2811868693688
 30
0.0
 10
391.9009566350335
 20
-731.8544179877151
 30
0.0
 10
401.1404604769118
 20
-728.23505307696
 30
0.0
 10
410.0299969764405
 20
-724.4295182436374
 30
0.0
 10
418.6656203603216
 20
-720.4045605805188
 30
0.0
 10
427.0645247422643
 20
-716.1215152175884
 30
0.0
 10
433.6956742648747
 20
-712.5094888837469
 30
0.0
 10
437.4151420782042
 20
-710.2445094860868
 30
0.0
 10
438.5248389538172
 20
-709.5687567475088
 30
0.0
  0
LWPOLYLINE
  5
FE
330
DA
100
AcDbEntity
  8
0
  6
Continuous
 62
     8
370
    25
100
AcDbPolyline
 90
        9
 70
   128
 43
0.0
 10
-490.8152158189
 20
-380.7295229734
 10
-489.1774346819
 20
-382.7999470088
 10
-480.6342823096
 20
-392.0997541459
 10
-470.9013225527
 20
-401.0673464691
 10
-459.8905245624
 20
-409.7390596353
 10
-447.7337223023
 20
-417.973209942
 10
-438.4475466423
 20
-423.5171964724
 10
-438.4475047627
 20
-423.5172202038
 10
-438.4475047627
 20
-423.5172202038
  0
LWPOLYLINE
  5
100
330
DA
100
AcDbEntity
  8
0
  6
Continuous
 62
     8
370
    25
100
AcDbPolyline
 90
       35
 70
   128
 43
0.0
 10
-391.1517741945
 20
-88.5100102488
 10
-383.7650405683
 20
-85.7893010098
 10
-374.4025493327
 20
-82.634195162
 10
-364.7649561988
 20
-79.6753695371
 10
-354.929845819
 20
-76.9392393042
 10
-344.7027402579
 20
-74.380975819
 10
-334.3043109368
 20
-72.0642098739
 10
-323.6777561098
 20
-69.9791073768
 10
-312.9146763139
 20
-68.1460445412
 10
-302.3886999907
 20
-66.6156492598
 10
-291.7698569143
 20
-65.327060574
 10
-281.0035915888
 20
-64.2763973448
 10
-270.1792132887
 20
-63.4742405022
 10
-259.0858370776
 20
-62.9129449049
 10
-247.9702978708
 20
-62.613122993
 10
-236.7727514805
 20
-62.5766180495
 10
-225.5926250774
 20
-62.8060671565
 10
-214.1802722031
 20
-63.3162044159
 10
-202.8287413491
 20
-64.1035943452
 10
-191.4737526782
 20
-65.1768143889
 10
-180.2243064332
 20
-66.5288778753
 10
-168.8351703028
 20
-68.1998279729
 10
-157.6024526641
 20
-70.1566866396
 10
-146.4593494812
 20
-72.4157918246
 10
-135.5218912964
 20
-74.9580048808
 10
-125.8400960948
 20
-77.4930835236
 10
-116.3607324753
 20
-80.2504036398
 10
-107.0376749415
 20
-83.2466267587
 10
-97.952613793
 20
-86.4590832915
 10
-88.9351128364
 20
-89.9586837195
 10
-80.1981922976
 20
-93.6721930246
 10
-71.6975634999
 20
-97.6221745499
 10
-63.5130576844
 20
-101.7752254926
 10
-63.5130145865
 20
-101.7752483399
 10
-63.5130145865
 20
-101.7752483399
  0
SPLINE
  5
102
330
DA
100
AcDbEntity
  8
0
  6
Continuous
 62
     8
370
    25
100
AcDbSpline
210
0.0
220
0.0
230
1.0
 70
     8
 71
     3
 72
    31
 73
    27
 74
     0
 42
0.000000001
 43
0.00000001
 40
0.0
 40
0.0
 40
0.0
 40
0.0
 40
0.0432747135920482
 40
0.086562308895584
 40
0.1298033542467679
 40
0.174280611930986
 40
0.2187981910183928
 40
0.2632756110306017
 40
0.3066143881116872
 40
0.3499904126357423
 40
0.3933293147030791
 40
0.4380787311110969
 40
0.4828690652828849
 40
0.527618573850862
 40
0.568686371847021
 40
0.6097856662773771
 40
0.6508534647567886
 40
0.6931083023527964
 40
0.735397319215378
 40
0.7776520790449225
 40
0.8188169473888502
 40
0.8600133219084268
 40
0.9011781105064949
 40
0.9435326112461524
 40
0.9859214195688945
 40
1.0
 40
1.0
 40
1.0
 40
1.0
 10
-71.81369250568004
 20
-119.4831884509344
 30
0.0
 10
-75.25221783148075
 20
-117.541772435445
 30
0.0
 10
-82.13029203904613
 20
-113.658362497441
 30
0.0
 10
-92.96064399152165
 20
-108.1508431096671
 30
0.0
 10
-104.4200089255153
 20
-102.9581916900527
 30
0.0
 10
-116.5634962661093
 20
-98.17030975078141
 30
0.0
 10
-129.2845066531603
 20
-93.75749086733967
 30
0.0
 10
-142.331859299485
 20
-89.8288440771656
 30
0.0
 10
-155.6445622341384
 20
-86.38570588845288
 30
0.0
 10
-169.1643118824351
 20
-83.42287195014717
 30
0.0
 10
-183.1097066996246
 20
-80.89250721639648
 30
0.0
 10
-197.4455152634058
 20
-78.82601609249699
 30
0.0
 10
-212.1245730717749
 20
-77.24441509323174
 30
0.0
 10
-226.5358942117865
 20
-76.20440441178484
 30
0.0
 10
-240.6164473296169
 20
-75.66580678817265
 30
0.0
 10
-254.3177245408815
 20
-75.57868887223209
 30
0.0
 10
-268.1383581674784
 20
-75.93132160724595
 30
0.0
 10
-282.0346519398742
 20
-76.74090693484192
 30
0.0
 10
-295.9594806167277
 20
-78.01521859158314
 30
0.0
 10
-309.6183903156816
 20
-79.72847762335087
 30
0.0
 10
-322.9712366821061
 20
-81.86429492061944
 30
0.0
 10
-335.9831169352626
 20
-84.40093111854391
 30
0.0
 10
-348.8634343546759
 20
-87.36923056822873
 30
0.0
 10
-361.5243152690547
 20
-90.81197653361775
 30
0.0
 10
-371.2668206047699
 20
-93.75471743623962
 30
0.0
 10
-376.5950756170595
 20
-95.66919254811893
 30
0.0
 10
-377.9235285241871
 20
-96.14651392671922
 30
0.0
  0
SPLINE
  5
103
330
DA
100
AcDbEntity
  8
0
  6
Continuous
 62
     8
370
    25
100
AcDbSpline
210
0.0
220
0.0
230
1.0
 70
     8
 71
     3
 72
    10
 73
     6
 74
     0
 42
0.000000001
 43
0.00000001
 40
0.0
 40
0.0
 40
0.0
 40
0.0
 40
0.3691524231657958
 40
0.6845760717290372
 40
1.0
 40
1.0
 40
1.0
 40
1.0
 10
405.5347128718371
 20
-395.0317602827717
 30
0.0
 10
346.8685885095812
 20
-361.083749238282
 30
0.0
 10
238.0749779596031
 20
-298.1287350342631
 30
0.0
 10
78.94896045680271
 20
-206.2847853641604
 30
0.0
 10
-21.55945999691067
 20
-148.4170626412172
 30
0.0
 10
-71.81369250568004
 20
-119.4831884509344
 30
0.0
  0
LINE
  5
106
330
DA
100
AcDbEntity
  8
0
  6
Continuous
 62
     7
370
    25
100
AcDbLine
 10
-490.8280189042
 20
-380.7414309719
 30
0.0
 11
-490.060239464
 21
-381.68393694
 31
0.0
  0
LINE
  5
107
330
DA
100
AcDbEntity
  8
0
  6
Continuous
 62
     7
370
    25
100
AcDbLine
 10
-28.2842712475
 20
342.8914069655
 30
0.0
 11
593.9696961967
 21
-16.3281622365
 31
0.0
  0
LINE
  5
108
330
DA
100
AcDbEntity
  8
0
  6
Continuous
 62
     7
370
    25
100
AcDbLine
 10
-593.9696961967
 20
16.3281622364
 30
0.0
 11
28.2842712496
 21
-342.8914069668
 31
0.0
  0
LINE
  5
109
330
DA
100
AcDbEntity
  8
0
  6
Continuous
 62
     7
370
    25
100
AcDbLine
 10
-583.3630944784
 20
22.4512230748
 30
0.0
 11
38.8908729676
 21
-336.7683461282
 31
0.0
  0
LINE
  5
10A
330
DA
100
AcDbEntity
  8
0
  6
Continuous
 62
     7
370
    25
100
AcDbLine
 10
583.3630944789
 20
-22.4512230751
 30
0.0
 11
-38.8908729653
 21
336.7683461269
 31
0.0
  0
LINE
  5
10B
330
DA
100
AcDbEntity
  8
0
  6
Continuous
 62
     7
370
    25
100
AcDbLine
 10
-438.4475047627
 20
-423.5172202038
 30
0.0
 11
-434.8026448388
 21
-425.6389226931
 31
0.0
  0
LINE
  5
10C
330
DA
100
AcDbEntity
  8
0
  6
Continuous
 62
     7
370
    25
100
AcDbLine
 10
-490.887222468
 20
-380.6384947563
 30
0.0
 11
-490.8152158189
 21
-380.7295229734
 31
0.0
  0
LINE
  5
10D
330
DA
100
AcDbEntity
  8
0
  6
Continuous
 62
     7
370
    25
100
AcDbLine
 10
-63.5130145865
 20
-101.7752483399
 30
0.0
 11
-59.5323797191
 21
-104.0826672366
 31
0.0
  0
LINE
  5
10E
330
DA
100
AcDbEntity
  8
0
  6
Continuous
 62
     7
370
    25
100
AcDbLine
 10
301.0389020986
 20
71.7237655581
 30
0.0
 11
297.4856135236
 21
69.6724957262
 31
0.0
  0
LINE
  5
10F
330
DA
100
AcDbEntity
  8
0
  6
Continuous
 62
     7
370
    25
100
AcDbLine
 10
244.4703596037
 20
104.380090031
 30
0.0
 11
240.9170710287
 21
102.3288201991
 31
0.0
  0
LINE
  5
110
330
DA
100
AcDbEntity
  8
0
  6
Continuous
 62
     8
370
    25
100
AcDbLine
 10
434.7594796189
 20
-389.4313405953
 30
0.0
 11
435.4808345506
 21
-389.8460562348
 31
0.0
  0
LINE
  5
111
330
DA
100
AcDbEntity
  8
0
  6
Continuous
 62
     8
370
    25
100
AcDbLine
 10
434.4741926205
 20
-390.1500766249
 30
0.0
 11
434.7594796189
 21
-389.4313405953
 31
0.0
  0
ARC
  5
112
330
DA
100
AcDbEntity
  8
0
  6
Continuous
 62
     7
370
    25
100
AcDbCircle
 10
-88.4663372712
 20
-93.6061624555
 30
0.0
 40
30.77224483290526
100
AcDbArc
 50
302.7624999927
 51
340.0955209386
  0
ARC
  5
113
330
DA
100
AcDbEntity
  8
0
  6
Continuous
 62
     8
370
    25
100
AcDbCircle
 10
58.9738187235
 20
-703.7020776714
 30
0.0
 40
7.31214704819156
100
AcDbArc
 50
205.8606401477
 51
239.3632292444
  0
ARC
  5
114
330
DA
100
AcDbEntity
  8
0
  6
Continuous
 62
     8
370
    25
100
AcDbCircle
 10
-428.1818055383
 20
-422.4124847138
 30
0.0
 40
7.365148679924555
100
AcDbArc
 50
205.9806943155
 51
239.0012363063
  0
VIEWPORT
  5
119
330
DA
100
AcDbEntity
  8
0
100
AcDbViewport
 10
0.0
 20
0.0
 30
0.0
 40
205.6
 41
156.0
 68
     1
 69
     1
 12
0.0
 22
0.0
 13
0.0
 23
0.0
 14
10.0
 24
10.0
 15
10.0
 25
10.0
 16
0.0
 26
0.0
 36
1.0
 17
0.0
 27
0.0
 37
0.0
 42
50.0
 43
0.0
 44
0.0
 45
1300.2023346304
 50
0.0
 51
0.0
 72
   100
 90
   557152
  1

281
     0
 71
     1
 74
     0
110
0.0
120
0.0
130
0.0
111
1.0
121
0.0
131
0.0
112
0.0
122
1.0
132
0.0
 79
     0
146
0.0
  0
ENDBLK
  5
DD
330
DA
100
AcDbEntity
  8
0
100
AcDbBlockEnd
  0
ENDSEC
  0
SECTION
  2
ENTITIES
  0
SPLINE
  5
7C
330
1F
100
AcDbEntity
  8
0
  6
Continuous
 62
     7
370
    25
100
AcDbSpline
210
0.0
220
0.0
230
1.0
 70
     8
 71
     3
 72
   119
 73
   115
 74
     0
 42
0.000000001
 43
0.00000001
 40
0.0
 40
0.0
 40
0.0
 40
0.0
 40
0.0004882812500001
 40
0.0004882812500001
 40
0.0009765625000002
 40
0.0019531250000003
 40
0.0039062500000004
 40
0.0078125000000004
 40
0.0078125000000004
 40
0.0156250000000005
 40
0.0156250000000005
 40
0.0312500000000007
 40
0.0312500000000007
 40
0.0625000000000013
 40
0.0625000000000013
 40
0.0937500000000019
 40
0.0937500000000019
 40
0.1015625000000021
 40
0.1015625000000021
 40
0.1093750000000024
 40
0.1093750000000024
 40
0.1250000000000028
 40
0.1250000000000028
 40
0.1562500000000038
 40
0.1562500000000038
 40
0.1875000000000047
 40
0.1875000000000047
 40
0.2187500000000056
 40
0.2187500000000056
 40
0.2265625000000057
 40
0.2265625000000057
 40
0.2343750000000059
 40
0.2343750000000059
 40
0.2500000000000061
 40
0.2500000000000061
 40
0.2812500000000064
 40
0.2812500000000064
 40
0.3125000000000067
 40
0.3125000000000067
 40
0.3281250000000069
 40
0.3281250000000069
 40
0.343750000000007
 40
0.343750000000007
 40
0.3750000000000073
 40
0.3750000000000073
 40
0.4062500000000077
 40
0.4062500000000077
 40
0.4218750000000078
 40
0.4218750000000078
 40
0.4296875000000078
 40
0.4296875000000078
 40
0.4375000000000078
 40
0.4375000000000078
 40
0.4687500000000078
 40
0.4687500000000078
 40
0.5000000000000079
 40
0.5000000000000079
 40
0.531250000000008
 40
0.531250000000008
 40
0.539062500000008
 40
0.539062500000008
 40
0.5468750000000081
 40
0.5468750000000081
 40
0.5625000000000081
 40
0.5625000000000081
 40
0.5937500000000082
 40
0.5937500000000082
 40
0.6250000000000083
 40
0.6250000000000083
 40
0.6406250000000082
 40
0.6406250000000082
 40
0.6484375000000082
 40
0.6484375000000082
 40
0.6562500000000083
 40
0.6562500000000083
 40
0.6875000000000084
 40
0.6875000000000084
 40
0.7187500000000085
 40
0.7187500000000085
 40
0.7500000000000085
 40
0.7500000000000085
 40
0.7578125000000085
 40
0.7578125000000085
 40
0.7656250000000084
 40
0.7656250000000084
 40
0.781250000000008
 40
0.781250000000008
 40
0.812500000000007
 40
0.812500000000007
 40
0.8437500000000057
 40
0.8437500000000057
 40
0.8593750000000051
 40
0.8593750000000051
 40
0.867187500000005
 40
0.867187500000005
 40
0.8750000000000048
 40
0.8750000000000048
 40
0.9062500000000037
 40
0.9062500000000037
 40
0.9375000000000026
 40
0.9375000000000026
 40
0.9687500000000014
 40
0.9687500000000014
 40
0.9765625000000011
 40
0.9765625000000011
 40
0.9843750000000007
 40
0.9921875000000003
 40
0.9921875000000003
 40
0.99609375
 40
0.9980468749999999
 40
0.9990234375
 40
0.99951171875
 40
0.99951171875
 40
1.0
 40
1.0
 40
1.0
 40
1.0
 10
355.1607076361293
 20
265.3397410206809
 30
0.0
 10
355.293889993571
 20
265.3375722523103
 30
0.0
 10
355.4308336678851
 20
265.3352375048104
 30
0.0
 10
355.700902403024
 20
265.3304208860879
 30
0.0
 10
356.1059473743786
 20
265.322882956628
 30
0.0
 10
357.0506457276695
 20
265.3031052751147
 30
0.0
 10
358.9384187837756
 20
265.2548075781515
 30
0.0
 10
360.5537355605819
 20
265.19847112553
 30
0.0
 10
363.7806919608884
 20
265.0659992420417
 30
0.0
 10
365.9270940335138
 20
264.9512896602771
 30
0.0
 10
372.3517452625707
 20
264.5287930673351
 30
0.0
 10
376.6154497968199
 20
264.1426940288277
 30
0.0
 10
389.3492048412203
 20
262.6755705224788
 30
0.0
 10
397.7620653281336
 20
261.2866220143029
 30
0.0
 10
414.435643148902
 20
257.6896431383808
 30
0.0
 10
422.6964419989177
 20
255.4819312705146
 30
0.0
 10
432.9256617462088
 20
252.2011024610856
 30
0.0
 10
434.9666531500738
 20
251.5188048703494
 30
0.0
 10
439.0388323886955
 20
250.1014169485895
 30
0.0
 10
441.0729132653467
 20
249.3652101260702
 30
0.0
 10
447.1338070504818
 20
247.0865294365835
 30
0.0
 10
451.119959276829
 20
245.4742442312424
 30
0.0
 10
462.9183102355703
 20
240.3634202204591
 30
0.0
 10
470.5709793199689
 20
236.5918715463742
 30
0.0
 10
485.4613593703845
 20
228.338667378783
 30
0.0
 10
492.6990354334563
 20
223.856955936387
 30
0.0
 10
506.7556569720788
 20
214.1770313325273
 30
0.0
 10
513.5746973157828
 20
208.9789587634038
 30
0.0
 10
521.8286914151711
 20
202.0196868113285
 30
0.0
 10
523.4646357751316
 20
200.6056856185109
 30
0.0
 10
526.6913298149107
 20
197.747171109781
 30
0.0
 10
528.284294059306
 20
196.3008085622239
 30
0.0
 10
533.0026351419655
 20
191.910906475726
 30
0.0
 10
536.0675047382994
 20
188.9165897751893
 30
0.0
 10
545.0231592853921
 20
179.7331163906675
 30
0.0
 10
550.6757875847442
 20
173.3440979781274
 30
0.0
 10
561.3532154517181
 20
160.0392119424033
 30
0.0
 10
566.3780082263929
 20
153.1233395337357
 30
0.0
 10
573.4336963293654
 20
142.3454965001278
 30
0.0
 10
575.7059112909598
 20
138.6841764672768
 30
0.0
 10
580.0837042503833
 20
131.2291991887454
 30
0.0
 10
582.1729808517513
 20
127.4634151619198
 30
0.0
 10
588.1483719884869
 20
116.053647120962
 30
0.0
 10
591.742866994889
 20
108.2975620842867
 30
0.0
 10
598.1669888298577
 20
92.49137903906234
 30
0.0
 10
600.9967564919077
 20
84.44133336295714
 30
0.0
 10
604.6651712837333
 20
72.14476350660087
 30
0.0
 10
605.7917348412337
 20
68.00891235591702
 30
0.0
 10
607.3349928001012
 20
61.74878898129766
 30
0.0
 10
607.8249676099331
 20
59.6526849748118
 30
0.0
 10
608.7554925993201
 20
55.44147871161164
 30
0.0
 10
609.1965747392695
 20
53.32351488321709
 30
0.0
 10
611.2682468578907
 20
42.730711878386
 30
0.0
 10
612.5017314180351
 20
34.24084806454231
 30
0.0
 10
614.150034385799
 20
17.23094810020951
 30
0.0
 10
614.5647445769828
 20
8.710907960839274
 30
0.0
 10
614.5760096675077
 20
-8.359325915905652
 30
0.0
 10
614.1725712421079
 20
-16.90951940946819
 30
0.0
 10
613.1456367051348
 20
-27.61652329738408
 30
0.0
 10
612.9140488517365
 20
-29.7588897246176
 30
0.0
 10
612.3979002346996
 20
-34.04557492384859
 30
0.0
 10
612.1132286102987
 20
-36.19001553073783
 30
0.0
 10
611.1842926861813
 20
-42.5916930350046
 30
0.0
 10
610.4638670193682
 20
-46.82890132020182
 30
0.0
 10
608.003944909525
 20
-59.45023467810107
 30
0.0
 10
605.966483186474
 20
-67.74427466060536
 30
0.0
 10
601.1107292470259
 20
-84.09627885177213
 30
0.0
 10
598.2924484323502
 20
-92.15424650579067
 30
0.0
 10
593.470066119398
 20
-104.061313794462
 30
0.0
 10
591.7631777775646
 20
-108.0002750204215
 30
0.0
 10
589.0514562131805
 20
-113.8629448997315
 30
0.0
 10
588.1223038176848
 20
-115.8095353892279
 30
0.0
 10
586.2129622935577
 20
-119.6872854639922
 30
0.0
 10
585.2357378351794
 20
-121.6123687255325
 30
0.0
 10
580.2447685767247
 20
-131.1561029844081
 30
0.0
 10
575.9105291899368
 20
-138.5444412975555
 30
0.0
 10
566.5750692613709
 20
-152.8393198154245
 30
0.0
 10
561.5736406409349
 20
-159.7457151715637
 30
0.0
 10
550.9044795964352
 20
-173.0771849292172
 30
0.0
 10
545.2368310269662
 20
-179.5023192563782
 30
0.0
 10
537.721894202035
 20
-187.2228313529871
 30
0.0
 10
536.1956394848514
 20
-188.7529670227767
 30
0.0
 10
533.1074071708373
 20
-191.7739907777291
 30
0.0
 10
531.5479171092063
 20
-193.262535494089
 30
0.0
 10
526.8238652276101
 20
-197.6630385330857
 30
0.0
 10
523.6137563356137
 20
-200.509915186998
 30
0.0
 10
513.8042414911633
 20
-208.7944952704021
 30
0.0
 10
507.0261735367765
 20
-213.976898228306
 30
0.0
 10
492.9966861756765
 20
-223.6652780851925
 30
0.0
 10
485.7451599680675
 20
-228.1711212078204
 30
0.0
 10
474.5074877783125
 20
-234.4148893346604
 30
0.0
 10
470.7014023183126
 20
-236.4101257354641
 30
0.0
 10
464.9001220639086
 20
-239.2712896575916
 30
0.0
 10
462.9482658489533
 20
-240.2042793457435
 30
0.0
 10
459.0311207847216
 20
-242.0176704720088
 30
0.0
 10
457.0652970860426
 20
-242.8984465977518
 30
0.0
 10
447.2001992220135
 20
-247.1737472612687
 30
0.0
 10
439.1933381921623
 20
-250.1837952424602
 30
0.0
 10
422.9562304702908
 20
-255.4055098295092
 30
0.0
 10
414.7259697420476
 20
-257.6171212151587
 30
0.0
 10
398.0404322488266
 20
-261.2361287079827
 30
0.0
 10
389.5850478712846
 20
-262.6432232064136
 30
0.0
 10
378.8708584431863
 20
-263.8840726126141
 30
0.0
 10
376.7193925254397
 20
-264.1063527329955
 30
0.0
 10
372.4162610387999
 20
-264.4971201189501
 30
0.0
 10
368.1099413889697
 20
-264.8345081162788
 30
0.0
 10
363.7972516060268
 20
-265.0652371865351
 30
0.0
 10
360.5603427991102
 20
-265.1982407317915
 30
0.0
 10
358.9412904514817
 20
-265.2547304045525
 30
0.0
 10
357.0513482464542
 20
-265.3030901295742
 30
0.0
 10
356.1061149588677
 20
-265.3228797894077
 30
0.0
 10
355.7009587693208
 20
-265.3304198640453
 30
0.0
 10
355.43084214891
 20
-265.3352373703106
 30
0.0
 10
355.2938899936677
 20
-265.3375722523318
 30
0.0
 10
355.1607076362243
 20
-265.3397410206794
 30
0.0
  0
SPLINE
  5
7E
330
1F
100
AcDbEntity
  8
0
  6
Continuous
 62
     7
370
    25
100
AcDbSpline
210
0.0
220
0.0
230
1.0
 70
     8
 71
     3
 72
    14
 73
    10
 74
     0
 42
0.000000001
 43
0.00000001
 40
0.0
 40
0.0
 40
0.0
 40
0.0
 40
0.25
 40
0.25
 40
0.5
 40
0.5
 40
0.75
 40
0.75
 40
1.0
 40
1.0
 40
1.0
 40
1.0
 10
-349.5342333995941
 20
265.342734600454
 30
0.0
 10
-291.281461231818
 20
265.3731064559813
 30
0.0
 10
-233.0286354311501
 20
265.3858682647489
 30
0.0
 10
-116.522928714293
 20
265.4012378674743
 30
0.0
 10
-58.27004725332332
 20
265.4031092562751
 30
0.0
 10
58.23575036299793
 20
265.4031101024092
 30
0.0
 10
116.4886807642524
 20
265.4012399567558
 30
0.0
 10
232.9944251324895
 20
265.3858752051531
 30
0.0
 10
291.24725436343
 20
265.3731168202792
 30
0.0
 10
349.5000000004891
 20
265.3427524468841
 30
0.0
  0
SPLINE
  5
80
330
1F
100
AcDbEntity
  8
0
  6
Continuous
 62
     7
370
    25
100
AcDbSpline
210
0.0
220
0.0
230
1.0
 70
     8
 71
     3
 72
   109
 73
   105
 74
     0
 42
0.000000001
 43
0.00000001
 40
0.0
 40
0.0
 40
0.0
 40
0.0
 40
0.0078125000000001
 40
0.0078125000000001
 40
0.0156250000000002
 40
0.0234375000000004
 40
0.0234375000000004
 40
0.0312500000000005
 40
0.0312500000000005
 40
0.0625000000000014
 40
0.0625000000000014
 40
0.0937500000000024
 40
0.0937500000000024
 40
0.1250000000000033
 40
0.1250000000000033
 40
0.1328125000000034
 40
0.1328125000000034
 40
0.1406250000000035
 40
0.1406250000000035
 40
0.1562500000000035
 40
0.1562500000000035
 40
0.1875000000000034
 40
0.1875000000000034
 40
0.2187500000000032
 40
0.2187500000000032
 40
0.2343750000000032
 40
0.2343750000000032
 40
0.2421875000000033
 40
0.2421875000000033
 40
0.2500000000000033
 40
0.2500000000000033
 40
0.2812500000000033
 40
0.2812500000000033
 40
0.3125000000000033
 40
0.3125000000000033
 40
0.3437500000000033
 40
0.3437500000000033
 40
0.3515625000000034
 40
0.3515625000000034
 40
0.3593750000000034
 40
0.3593750000000034
 40
0.3750000000000034
 40
0.3750000000000034
 40
0.4062500000000033
 40
0.4062500000000033
 40
0.4375000000000031
 40
0.4375000000000031
 40
0.4531250000000031
 40
0.4531250000000031
 40
0.4609375000000031
 40
0.4609375000000031
 40
0.468750000000003
 40
0.468750000000003
 40
0.5000000000000028
 40
0.5000000000000028
 40
0.5312500000000026
 40
0.5312500000000026
 40
0.5625000000000024
 40
0.5625000000000024
 40
0.5703125000000024
 40
0.5703125000000024
 40
0.5781250000000024
 40
0.5781250000000024
 40
0.5937500000000023
 40
0.5937500000000023
 40
0.6250000000000024
 40
0.6250000000000024
 40
0.6562500000000024
 40
0.6562500000000024
 40
0.6718750000000023
 40
0.6718750000000023
 40
0.6875000000000023
 40
0.6875000000000023
 40
0.7187500000000022
 40
0.7187500000000022
 40
0.750000000000002
 40
0.750000000000002
 40
0.7656250000000019
 40
0.7656250000000019
 40
0.7734375000000018
 40
0.7734375000000018
 40
0.7812500000000017
 40
0.7812500000000017
 40
0.8125000000000013
 40
0.8125000000000013
 40
0.8437500000000011
 40
0.8437500000000011
 40
0.8750000000000008
 40
0.8750000000000008
 40
0.8906250000000006
 40
0.8906250000000006
 40
0.8984375000000006
 40
0.8984375000000006
 40
0.9062500000000004
 40
0.9062500000000004
 40
0.9375000000000002
 40
0.9375000000000002
 40
0.9687500000000001
 40
0.9687500000000001
 40
0.984375
 40
0.984375
 40
0.9921875
 40
0.9921875
 40
1.0
 40
1.0
 40
1.0
 40
1.0
 10
-355.1607076361283
 20
-265.3397410206808
 30
0.0
 10
-357.3197887428028
 20
-265.3045821101499
 30
0.0
 10
-359.4813681300894
 20
-265.2425753714825
 30
0.0
 10
-363.7972364562332
 20
-265.0652378926185
 30
0.0
 10
-368.1099133479722
 20
-264.8345097694597
 30
0.0
 10
-372.4162145218299
 20
-264.4971238679148
 30
0.0
 10
-376.7193247500723
 20
-264.106359362905
 30
0.0
 10
-378.8708012033603
 20
-263.8840790467065
 30
0.0
 10
-389.5851599587215
 20
-262.6432110053934
 30
0.0
 10
-398.0406305706083
 20
-261.2360939146884
 30
0.0
 10
-414.7262520538322
 20
-257.6170517612586
 30
0.0
 10
-422.9565105600088
 20
-255.4054282617715
 30
0.0
 10
-439.1935328408887
 20
-250.1837241381358
 30
0.0
 10
-447.2003106203525
 20
-247.1736985978214
 30
0.0
 10
-457.0652568535824
 20
-242.8984641300596
 30
0.0
 10
-459.0310478421492
 20
-242.0177031629563
 30
0.0
 10
-462.9481227986607
 20
-240.2043466458114
 30
0.0
 10
-464.9000035851547
 20
-239.2713471859133
 30
0.0
 10
-470.7013727918045
 20
-236.410142107412
 30
0.0
 10
-474.5075055367097
 20
-234.4148806216997
 30
0.0
 10
-485.745287125761
 20
-228.1710482500703
 30
0.0
 10
-492.9968430965749
 20
-223.6651769603094
 30
0.0
 10
-507.0263193397547
 20
-213.9767903002094
 30
0.0
 10
-513.8043463943234
 20
-208.7944086497791
 30
0.0
 10
-523.6137573399759
 20
-200.5099133513328
 30
0.0
 10
-526.823824492334
 20
-197.6630737828692
 30
0.0
 10
-531.5478043544125
 20
-193.2626418740568
 30
0.0
 10
-533.1072688411944
 20
-191.7741234541718
 30
0.0
 10
-536.1954470808494
 20
-188.7531578820067
 30
0.0
 10
-537.7217524712697
 20
-187.2229749659911
 30
0.0
 10
-545.2368028637803
 20
-179.5023561691267
 30
0.0
 10
-550.9045013685641
 20
-173.0771612157548
 30
0.0
 10
-561.5737036818334
 20
-159.7456329083156
 30
0.0
 10
-566.5751235064514
 20
-152.8392395484013
 30
0.0
 10
-575.9105268523407
 20
-138.5444420814749
 30
0.0
 10
-580.2447183898236
 20
-131.1561827465164
 30
0.0
 10
-585.2356159234196
 20
-121.6126058963221
 30
0.0
 10
-586.2127980600878
 20
-119.687612926394
 30
0.0
 10
-588.122175429416
 20
-115.8098022218557
 30
0.0
 10
-589.0513436865914
 20
-113.8631836582992
 30
0.0
 10
-591.7631073200484
 20
-108.0004363887972
 30
0.0
 10
-593.4700163623686
 20
-104.0614326752811
 30
0.0
 10
-598.2924436659591
 20
-92.15426622553726
 30
0.0
 10
-601.110731729114
 20
-84.09627010099973
 30
0.0
 10
-605.9664787162087
 20
-67.74429010666854
 30
0.0
 10
-608.0039261041517
 20
-59.45030275221907
 30
0.0
 10
-610.463828016389
 20
-46.82911564183485
 30
0.0
 10
-611.1842471683865
 20
-42.59196734261254
 30
0.0
 10
-612.1131760172182
 20
-36.19039765584812
 30
0.0
 10
-612.3978464978112
 20
-34.04599482161806
 30
0.0
 10
-612.9140093034928
 20
-29.75924456792745
 30
0.0
 10
-613.1456031031938
 20
-27.61684837358836
 30
0.0
 10
-614.1725627242662
 20
-16.90970926390077
 30
0.0
 10
-614.5760064677808
 20
-8.35945103888975
 30
0.0
 10
-614.5647479118754
 20
8.71082820193787
 30
0.0
 10
-614.1500388194987
 20
17.23084896891261
 30
0.0
 10
-612.5017580213752
 20
34.2406269036211
 30
0.0
 10
-611.2682943806454
 20
42.73038806574645
 30
0.0
 10
-609.1966775359479
 20
53.32300946918853
 30
0.0
 10
-608.7555940950086
 20
55.44100229187638
 30
0.0
 10
-607.8250626255385
 20
59.65227205469996
 30
0.0
 10
-607.3350844350189
 20
61.74840484340773
 30
0.0
 10
-605.7918164956274
 20
68.00860598096153
 30
0.0
 10
-604.6652465044857
 20
72.14449753668309
 30
0.0
 10
-600.9968174988315
 20
84.44115652395534
 30
0.0
 10
-598.1670471164011
 20
92.4912189265162
 30
0.0
 10
-591.7429562149391
 20
108.297359264947
 30
0.0
 10
-588.1484947361963
 20
116.0533848038465
 30
0.0
 10
-582.173199198041
 20
127.463012205183
 30
0.0
 10
-580.0839620368944
 20
131.2287407712793
 30
0.0
 10
-575.7062666152103
 20
138.6835908109952
 30
0.0
 10
-573.4339547958471
 20
142.3450888589124
 30
0.0
 10
-566.3782037509286
 20
153.123066507178
 30
0.0
 10
-561.3533855557176
 20
160.0389860001148
 30
0.0
 10
-550.6759585113664
 20
173.3438989699143
 30
0.0
 10
-545.0233563392034
 20
179.7328971361346
 30
0.0
 10
-536.067794578083
 20
188.9163011557211
 30
0.0
 10
-533.0029648531029
 20
191.9105882093423
 30
0.0
 10
-528.2846990638047
 20
196.3004375016922
 30
0.0
 10
-526.6917625005834
 20
197.746781063906
 30
0.0
 10
-523.4651293689835
 20
200.6052550753649
 30
0.0
 10
-521.8292341183517
 20
202.019222019081
 30
0.0
 10
-513.5751111702224
 20
208.9786386906684
 30
0.0
 10
-506.7559737474342
 20
214.176802275664
 30
0.0
 10
-492.6991753130376
 20
223.8568705229262
 30
0.0
 10
-485.4614193794857
 20
228.3386344895666
 30
0.0
 10
-470.5709017040303
 20
236.5919141944295
 30
0.0
 10
-462.9181748363324
 20
240.3634858371744
 30
0.0
 10
-451.119757942268
 20
245.4743279633176
 30
0.0
 10
-447.1335872098551
 20
247.0866164883607
 30
0.0
 10
-441.0726714679811
 20
249.365298833338
 30
0.0
 10
-439.0385997901495
 20
250.1014999669642
 30
0.0
 10
-434.9664383491278
 20
251.5188775763855
 30
0.0
 10
-432.9254556155801
 20
252.2011703575346
 30
0.0
 10
-422.6962780662072
 20
255.4819767126099
 30
0.0
 10
-414.4355092915501
 20
257.6896756930968
 30
0.0
 10
-397.7619838619909
 20
261.2866359111219
 30
0.0
 10
-389.3491456958571
 20
262.6755786907481
 30
0.0
 10
-376.6154179301464
 20
264.1426970234422
 30
0.0
 10
-372.3517214531043
 20
264.5287949102657
 30
0.0
 10
-365.927080687712
 20
264.9512903993315
 30
0.0
 10
-363.780681832464
 20
265.0659997170863
 30
0.0
 10
-359.4780791790191
 20
265.2426285351627
 30
0.0
 10
-357.3197887427359
 20
265.3045821090434
 30
0.0
 10
-355.1607076361287
 20
265.3397410206808
 30
0.0
  0
SPLINE
  5
82
330
1F
100
AcDbEntity
  8
0
  6
Continuous
 62
     7
370
    25
100
AcDbSpline
210
0.0
220
0.0
230
1.0
 70
     8
 71
     3
 72
    14
 73
    10
 74
     0
 42
0.000000001
 43
0.00000001
 40
0.0
 40
0.0
 40
0.0
 40
0.0
 40
0.25
 40
0.25
 40
0.5
 40
0.5
 40
0.75
 40
0.75
 40
1.0
 40
1.0
 40
1.0
 40
1.0
 10
349.4999999993984
 20
-265.342752446883
 30
0.0
 10
291.2472543587561
 20
-265.3731168202815
 30
0.0
 10
232.9944251318647
 20
-265.3858752051524
 30
0.0
 10
116.488680779551
 20
-265.4012399567545
 30
0.0
 10
58.2357503836735
 20
-265.4031101024087
 30
0.0
 10
-58.27004724806711
 20
-265.4031092562751
 30
0.0
 10
-116.5229287147566
 20
-265.4012378674744
 30
0.0
 10
-233.0286354366154
 20
-265.3858682647484
 30
0.0
 10
-291.2814612366272
 20
-265.3731064559784
 30
0.0
 10
-349.534233397612
 20
-265.3427346004549
 30
0.0
  0
SPLINE
  5
83
330
1F
100
AcDbEntity
  8
0
  6
Continuous
 62
     7
370
    25
100
AcDbSpline
210
0.0
220
0.0
230
1.0
 70
     8
 71
     3
 72
     8
 73
     4
 74
     0
 42
0.000000001
 43
0.00000001
 40
0.0
 40
0.0
 40
0.0
 40
0.0
 40
1.0
 40
1.0
 40
1.0
 40
1.0
 10
-39.99999999999981
 20
382.4833748108877
 30
0.0
 10
-13.33333333333313
 20
382.5268039972967
 30
0.0
 10
13.33333333333351
 20
382.5268039972967
 30
0.0
 10
40.00000000000018
 20
382.4833748108875
 30
0.0
  0
SPLINE
  5
84
330
1F
100
AcDbEntity
  8
0
  6
Continuous
 62
     7
370
    25
100
AcDbSpline
210
0.0
220
0.0
230
1.0
 70
     8
 71
     3
 72
    51
 73
    47
 74
     0
 42
0.000000001
 43
0.00000001
 40
0.0
 40
0.0
 40
0.0
 40
0.0
 40
0.0625000000000018
 40
0.0625000000000018
 40
0.0937500000000023
 40
0.0937500000000023
 40
0.1250000000000029
 40
0.1250000000000029
 40
0.1875000000000039
 40
0.1875000000000039
 40
0.2187500000000045
 40
0.2187500000000045
 40
0.2500000000000051
 40
0.2500000000000051
 40
0.3125000000000052
 40
0.3125000000000052
 40
0.3437500000000048
 40
0.3437500000000048
 40
0.3750000000000044
 40
0.4062500000000039
 40
0.4062500000000039
 40
0.4375000000000035
 40
0.4375000000000035
 40
0.5000000000000031
 40
0.5000000000000031
 40
0.5312500000000036
 40
0.5312500000000036
 40
0.562500000000004
 40
0.562500000000004
 40
0.625000000000004
 40
0.625000000000004
 40
0.6562500000000042
 40
0.6562500000000042
 40
0.6875000000000043
 40
0.6875000000000043
 40
0.7500000000000031
 40
0.7500000000000031
 40
0.8125000000000019
 40
0.8125000000000019
 40
0.8437500000000016
 40
0.8437500000000016
 40
0.8750000000000012
 40
0.8750000000000012
 40
0.9375000000000007
 40
0.9375000000000007
 40
1.0
 40
1.0
 40
1.0
 40
1.0
 10
-39.99999999999973
 20
380.7081892559493
 30
0.0
 10
-40.66193410633849
 20
380.7068835711342
 30
0.0
 10
-41.31273158195948
 20
380.712122895644
 30
0.0
 10
-42.27291399566654
 20
380.72934059176
 30
0.0
 10
-42.59028591498189
 20
380.7366500839465
 30
0.0
 10
-43.21952996630651
 20
380.7544568136585
 30
0.0
 10
-43.53211052404375
 20
380.765001433406
 30
0.0
 10
-44.4410728332659
 20
380.8007115326241
 30
0.0
 10
-45.01573789453997
 20
380.8300721471031
 30
0.0
 10
-45.83122981485188
 20
380.8821053780098
 30
0.0
 10
-46.09631298460043
 20
380.900875421539
 30
0.0
 10
-46.6053156011074
 20
380.9407577656619
 30
0.0
 10
-46.84752869149407
 20
380.9617177168564
 30
0.0
 10
-47.53845558292629
 20
381.0274803050867
 30
0.0
 10
-47.95179534853013
 20
381.0751391604163
 30
0.0
 10
-48.49919604094988
 20
381.1521739151719
 30
0.0
 10
-48.66880320318182
 20
381.1787226120155
 30
0.0
 10
-48.97636072233465
 20
381.2324820788585
 30
0.0
 10
-49.25426305379084
 20
381.2871748472272
 30
0.0
 10
-49.4737102496432
 20
381.3436247351653
 30
0.0
 10
-49.663512010005
 20
381.400931002978
 30
0.0
 10
-49.74390181948739
 20
381.4301749172328
 30
0.0
 10
-49.9359161129888
 20
381.51783415301
 30
0.0
 10
-49.99942675865941
 20
381.5760259701882
 30
0.0
 10
-50.00028088133585
 20
381.6628793907346
 30
0.0
 10
-49.98471796172474
 20
381.6917589320695
 30
0.0
 10
-49.92089540018534
 20
381.7493735751502
 30
0.0
 10
-49.87273785943805
 20
381.7778872619699
 30
0.0
 10
-49.68252772161745
 20
381.8614901780468
 30
0.0
 10
-49.49470324857349
 20
381.9151124544024
 30
0.0
 10
-49.12068306129312
 20
381.9925162361261
 30
0.0
 10
-48.97959770092806
 20
382.0179414409462
 30
0.0
 10
-48.67099532752705
 20
382.0668689130868
 30
0.0
 10
-48.50344670626528
 20
382.0904244255531
 30
0.0
 10
-47.96196871196865
 20
382.1584968379069
 30
0.0
 10
-47.54958713470701
 20
382.2004417529081
 30
0.0
 10
-46.61780443354925
 20
382.277599459583
 30
0.0
 10
-46.1118447929068
 20
382.3116706961342
 30
0.0
 10
-45.29974278359908
 20
382.3562567971354
 30
0.0
 10
-45.01986901972368
 20
382.3700437106737
 30
0.0
 10
-44.4413778592301
 20
382.3954694638255
 30
0.0
 10
-44.1413646315786
 20
382.4071446833876
 30
0.0
 10
-43.23148393671772
 20
382.4382428515403
 30
0.0
 10
-42.60732246061867
 20
382.4540299459118
 30
0.0
 10
-41.32427281124122
 20
382.4760827279644
 30
0.0
 10
-40.66192173694954
 20
382.4822968087938
 30
0.0
 10
-39.99999999999982
 20
382.4833748108875
 30
0.0
  0
SPLINE
  5
85
330
1F
100
AcDbEntity
  8
0
  6
Continuous
 62
     7
370
    25
100
AcDbSpline
210
0.0
220
0.0
230
1.0
 70
     8
 71
     3
 72
     8
 73
     4
 74
     0
 42
0.000000001
 43
0.00000001
 40
0.0
 40
0.0
 40
0.0
 40
0.0
 40
1.0
 40
1.0
 40
1.0
 40
1.0
 10
40.00000000000023
 20
380.7081892559493
 30
0.0
 10
13.33333333333355
 20
380.7607900532237
 30
0.0
 10
-13.33333333333323
 20
380.7607900532236
 30
0.0
 10
-39.9999999999999
 20
380.7081892559492
 30
0.0
  0
SPLINE
  5
86
330
1F
100
AcDbEntity
  8
0
  6
Continuous
 62
     7
370
    25
100
AcDbSpline
210
0.0
220
0.0
230
1.0
 70
     8
 71
     3
 72
    51
 73
    47
 74
     0
 42
0.000000001
 43
0.00000001
 40
0.0
 40
0.0
 40
0.0
 40
0.0
 40
0.0625000000000011
 40
0.0625000000000011
 40
0.0937500000000016
 40
0.0937500000000016
 40
0.1250000000000021
 40
0.1250000000000021
 40
0.1875000000000035
 40
0.1875000000000035
 40
0.2187500000000037
 40
0.2187500000000037
 40
0.2500000000000039
 40
0.2500000000000039
 40
0.3125000000000054
 40
0.3125000000000054
 40
0.3437500000000059
 40
0.3437500000000059
 40
0.3750000000000063
 40
0.4062500000000067
 40
0.4062500000000067
 40
0.437500000000007
 40
0.437500000000007
 40
0.5000000000000064
 40
0.5000000000000064
 40
0.5312500000000063
 40
0.5312500000000063
 40
0.5625000000000062
 40
0.5625000000000062
 40
0.625000000000006
 40
0.625000000000006
 40
0.6562500000000051
 40
0.6562500000000051
 40
0.6875000000000041
 40
0.6875000000000041
 40
0.7500000000000024
 40
0.7500000000000024
 40
0.8125000000000008
 40
0.8125000000000008
 40
0.8437500000000006
 40
0.8437500000000006
 40
0.8750000000000003
 40
0.8750000000000003
 40
0.9375000000000002
 40
0.9375000000000002
 40
1.0
 40
1.0
 40
1.0
 40
1.0
 10
40.0000000000002
 20
382.4833748108876
 30
0.0
 10
40.66192732656263
 20
382.4822967996906
 30
0.0
 10
41.31272470108474
 20
382.4762118896242
 30
0.0
 10
42.27291389392562
 20
382.459811309768
 30
0.0
 10
42.59028920685126
 20
382.4531220487995
 30
0.0
 10
43.21954152053421
 20
382.4372155260596
 30
0.0
 10
43.5321672005882
 20
382.4279571902533
 30
0.0
 10
44.44131881976259
 20
382.396910279267
 30
0.0
 10
45.01611971787111
 20
382.3717451149353
 30
0.0
 10
45.83180131462512
 20
382.3270860630822
 30
0.0
 10
46.09690160310829
 20
382.3109695005315
 30
0.0
 10
46.60618969847834
 20
382.2765901468725
 30
0.0
 10
46.84852406657502
 20
382.2584675846811
 30
0.0
 10
47.53975004390607
 20
382.2013090644537
 30
0.0
 10
47.95320269497979
 20
382.1595090570343
 30
0.0
 10
48.50064190049441
 20
382.0908210595853
 30
0.0
 10
48.67032532325032
 20
382.0669598357286
 30
0.0
 10
48.97791835338241
 20
382.0182228806499
 30
0.0
 10
49.25578297431625
 20
381.9682263333783
 30
0.0
 10
49.47507357373087
 20
381.9156695663995
 30
0.0
 10
49.66467297180536
 20
381.8617830059584
 30
0.0
 10
49.74493868061814
 20
381.834018976689
 30
0.0
 10
49.9365870237745
 20
381.7499027311334
 30
0.0
 10
49.99976548518304
 20
381.692921395465
 30
0.0
 10
50.00011628927033
 20
381.606078201693
 30
0.0
 10
49.98438456614604
 20
381.5769016024332
 30
0.0
 10
49.92024420015894
 20
381.5180836570149
 30
0.0
 10
49.87193027439224
 20
381.4886599127444
 30
0.0
 10
49.68130183723897
 20
381.4015231764707
 30
0.0
 10
49.49325871923484
 20
381.3444561033079
 30
0.0
 10
49.11907312165707
 20
381.2605870885861
 30
0.0
 10
48.97796117962348
 20
381.2327760847284
 30
0.0
 10
48.66933132316252
 20
381.178800768416
 30
0.0
 10
48.50179142014907
 20
381.1525839052793
 30
0.0
 10
47.96040488016515
 20
381.0762629595948
 30
0.0
 10
47.54817157956859
 20
381.0284628003847
 30
0.0
 10
46.61684370331231
 20
380.9397039154573
 30
0.0
 10
46.11096715964121
 20
380.9000485895284
 30
0.0
 10
45.29916321511827
 20
380.8481105549737
 30
0.0
 10
45.01939526396984
 20
380.8320381299304
 30
0.0
 10
44.44112361223409
 20
380.80247474261
 30
0.0
 10
44.1411683722772
 20
380.788939820183
 30
0.0
 10
43.23130188115599
 20
380.7531627405094
 30
0.0
 10
42.60718358621635
 20
380.7354227433415
 30
0.0
 10
41.3242860040468
 20
380.7122437061054
 30
0.0
 10
40.66194014008872
 20
380.7068835592324
 30
0.0
 10
40.00000000000025
 20
380.7081892559493
 30
0.0
  0
SPLINE
  5
88
330
1F
100
AcDbEntity
  8
0
  6
Continuous
 62
     7
370
    25
100
AcDbSpline
210
0.0
220
0.0
230
1.0
 70
     8
 71
     3
 72
   118
 73
   114
 74
     0
 42
0.000000001
 43
0.00000001
 40
0.0
 40
0.0
 40
0.0
 40
0.0
 40
0.0039062499999999
 40
0.0039062499999999
 40
0.0078124999999998
 40
0.0078124999999998
 40
0.0156249999999995
 40
0.0156249999999995
 40
0.0312499999999993
 40
0.0312499999999993
 40
0.0390624999999992
 40
0.0390624999999992
 40
0.046874999999999
 40
0.046874999999999
 40
0.062499999999999
 40
0.062499999999999
 40
0.0937499999999991
 40
0.0937499999999991
 40
0.1249999999999992
 40
0.1249999999999992
 40
0.1328124999999993
 40
0.1328124999999993
 40
0.1406249999999993
 40
0.1406249999999993
 40
0.1562499999999995
 40
0.1562499999999995
 40
0.1874999999999998
 40
0.1874999999999998
 40
0.2187500000000003
 40
0.2187500000000003
 40
0.2343750000000004
 40
0.2343750000000004
 40
0.2421875000000002
 40
0.2421875000000002
 40
0.2500000000000001
 40
0.2500000000000001
 40
0.2812499999999994
 40
0.2812499999999994
 40
0.3124999999999989
 40
0.3124999999999989
 40
0.3437499999999983
 40
0.3437499999999983
 40
0.3515624999999983
 40
0.3515624999999983
 40
0.3593749999999983
 40
0.3593749999999983
 40
0.3749999999999982
 40
0.3749999999999982
 40
0.406249999999998
 40
0.406249999999998
 40
0.4374999999999977
 40
0.4374999999999977
 40
0.4531249999999976
 40
0.4531249999999976
 40
0.4609374999999976
 40
0.4609374999999976
 40
0.4687499999999975
 40
0.4687499999999975
 40
0.4999999999999972
 40
0.4999999999999972
 40
0.531249999999997
 40
0.531249999999997
 40
0.5624999999999967
 40
0.5624999999999967
 40
0.5703124999999967
 40
0.5703124999999967
 40
0.5781249999999967
 40
0.5781249999999967
 40
0.5937499999999967
 40
0.5937499999999967
 40
0.6249999999999966
 40
0.6249999999999966
 40
0.6562499999999963
 40
0.6562499999999963
 40
0.6640624999999963
 40
0.6640624999999963
 40
0.6718749999999963
 40
0.6718749999999963
 40
0.6874999999999963
 40
0.6874999999999963
 40
0.7187499999999967
 40
0.7187499999999967
 40
0.7499999999999969
 40
0.7499999999999969
 40
0.7656249999999969
 40
0.7656249999999969
 40
0.773437499999997
 40
0.773437499999997
 40
0.7812499999999971
 40
0.7812499999999971
 40
0.812499999999997
 40
0.812499999999997
 40
0.843749999999997
 40
0.843749999999997
 40
0.8749999999999969
 40
0.8749999999999969
 40
0.8828124999999971
 40
0.8828124999999971
 40
0.8906249999999973
 40
0.8906249999999973
 40
0.9062499999999977
 40
0.9062499999999977
 40
0.9374999999999984
 40
0.9374999999999984
 40
0.9687499999999991
 40
0.9687499999999991
 40
0.9843749999999993
 40
0.9843749999999993
 40
0.9921874999999996
 40
0.9921874999999996
 40
0.9960937499999998
 40
0.9960937499999998
 40
1.0
 40
1.0
 40
1.0
 40
1.0
 10
349.4657728756597
 20
-247.9401694168386
 30
0.0
 10
350.5012906031471
 20
-247.9381327770288
 30
0.0
 10
351.5368077284992
 20
-247.9360794530137
 30
0.0
 10
353.6078407587905
 20
-247.9319389892971
 30
0.0
 10
354.643417957463
 20
-247.9315502007733
 30
0.0
 10
357.7497128719925
 20
-247.9182840905071
 30
0.0
 10
359.8196349398183
 20
-247.883360635931
 30
0.0
 10
366.0265845375482
 20
-247.7005466372865
 30
0.0
 10
370.1607975377544
 20
-247.4746699823687
 30
0.0
 10
376.3564781461781
 20
-246.9796103357316
 30
0.0
 10
378.42079552465
 20
-246.788467766164
 30
0.0
 10
382.5322184396882
 20
-246.3557271997604
 30
0.0
 10
384.5812591279782
 20
-246.1139913465896
 30
0.0
 10
390.7085759890152
 20
-245.3134745886497
 30
0.0
 10
394.7670625202626
 20
-244.6794436611523
 30
0.0
 10
406.86442964524
 20
-242.4804046176833
 30
0.0
 10
414.8252681519632
 20
-240.6186418171407
 30
0.0
 10
430.5410776304903
 20
-236.1123058411506
 30
0.0
 10
438.2961102849103
 20
-233.4679672135721
 30
0.0
 10
447.8583595105513
 20
-229.6623576161389
 30
0.0
 10
449.7642126863135
 20
-228.8761518910815
 30
0.0
 10
453.5625756439504
 20
-227.2530022457659
 30
0.0
 10
455.4566123315959
 20
-226.4153669804116
 30
0.0
 10
461.1084117802091
 20
-223.8301890856895
 30
0.0
 10
464.8170338469893
 20
-222.0192572182966
 30
0.0
 10
475.7692028481184
 20
-216.3299806127151
 30
0.0
 10
482.8395647495678
 20
-212.1959111350766
 30
0.0
 10
496.5265784381756
 20
-203.257824558916
 30
0.0
 10
503.1428576168069
 20
-198.4532572672451
 30
0.0
 10
512.7244245772512
 20
-190.7401519053468
 30
0.0
 10
515.8610293164157
 20
-188.0845801772375
 30
0.0
 10
520.4786801771558
 20
-183.9723801504043
 30
0.0
 10
522.0033460373254
 20
-182.5801606871336
 30
0.0
 10
525.0232386538728
 20
-179.7522520275504
 30
0.0
 10
526.5197769844249
 20
-178.3151825095577
 30
0.0
 10
533.8877185356665
 20
-171.0600309508076
 30
0.0
 10
539.445038458757
 20
-165.0063384525437
 30
0.0
 10
549.9094259419015
 20
-152.4174452867667
 30
0.0
 10
554.8164812817029
 20
-145.8822355702254
 30
0.0
 10
563.9804083118729
 20
-132.3303588499242
 30
0.0
 10
568.2370006473092
 20
-125.3134849854297
 30
0.0
 10
573.1413840015434
 20
-116.2340826208169
 30
0.0
 10
574.1013837066797
 20
-114.4027428737558
 30
0.0
 10
575.9791427724558
 20
-110.7087846452499
 30
0.0
 10
576.8939599415023
 20
-108.8518891667467
 30
0.0
 10
579.5622739541111
 20
-103.2611852695114
 30
0.0
 10
581.2417516482806
 20
-99.50333482771646
 30
0.0
 10
585.9867633547937
 20
-88.13911502423841
 30
0.0
 10
588.7595822130036
 20
-80.44229541008313
 30
0.0
 10
593.5376649894698
 20
-64.81147837554727
 30
0.0
 10
595.542922295981
 20
-56.87747891210863
 30
0.0
 10
597.9643785919557
 20
-44.79527040681295
 30
0.0
 10
598.6735577822892
 20
-40.73759351802061
 30
0.0
 10
599.5879276355798
 20
-34.60491326666097
 30
0.0
 10
599.8681411616452
 20
-32.55007274918008
 30
0.0
 10
600.3761428876229
 20
-28.4417428888963
 30
0.0
 10
600.6039889950197
 20
-26.38856255094205
 30
0.0
 10
601.6139183281163
 20
-16.12752838726395
 30
0.0
 10
602.0092735485696
 20
-7.934232884270661
 30
0.0
 10
601.9931861484204
 20
8.421986327613803
 30
0.0
 10
601.58175486166
 20
16.58491046316577
 30
0.0
 10
599.9515469145908
 20
32.88036632838252
 30
0.0
 10
598.732886511651
 20
41.0129024345394
 30
0.0
 10
596.6861495275958
 20
51.15886881382497
 30
0.0
 10
596.2506433957928
 20
53.1862040309836
 30
0.0
 10
595.3321688233048
 20
57.21611305236863
 30
0.0
 10
594.8486467057505
 20
59.22152295803771
 30
0.0
 10
593.3260442565756
 20
65.20944051261183
 30
0.0
 10
592.2149837272486
 20
69.16365796885016
 30
0.0
 10
588.5982830451889
 20
80.91487955448997
 30
0.0
 10
585.8099589465728
 20
88.60078113697227
 30
0.0
 10
579.4820637762142
 20
103.6773236290339
 30
0.0
 10
575.9427599367885
 20
111.0680695682456
 30
0.0
 10
571.0402065105372
 20
120.1184683800347
 30
0.0
 10
570.0357062064136
 20
121.9191195639562
 30
0.0
 10
567.9782152299534
 20
125.5013638866289
 30
0.0
 10
566.9241848721668
 20
127.284658320748
 30
0.0
 10
563.6955037073952
 20
132.5939634653236
 30
0.0
 10
561.4633848567945
 20
136.0648905698098
 30
0.0
 10
554.5324422858864
 20
146.2756393840418
 30
0.0
 10
549.6000171711496
 20
152.8142765827924
 30
0.0
 10
539.1245941304027
 20
165.3657074049082
 30
0.0
 10
533.5815167843089
 20
171.378432629321
 30
0.0
 10
524.8022704661863
 20
179.9973669492107
 30
0.0
 10
521.7983491227784
 20
182.8035946520583
 30
0.0
 10
517.1744795084574
 20
186.9113217553199
 30
0.0
 10
515.6135134219195
 20
188.2636183778564
 30
0.0
 10
512.4517959584339
 20
190.933947340322
 30
0.0
 10
510.8502269144693
 20
192.2525272979834
 30
0.0
 10
502.7891277584537
 20
198.7215528628805
 30
0.0
 10
496.1347501807306
 20
203.5321182889741
 30
0.0
 10
482.4272323477587
 20
212.4456479211426
 30
0.0
 10
475.3743950445401
 20
216.5491497132001
 30
0.0
 10
460.8727089261749
 20
224.0534339989124
 30
0.0
 10
453.4237905146649
 20
227.4540929943701
 30
0.0
 10
443.8578200739669
 20
231.2527363569568
 30
0.0
 10
441.9318692173992
 20
231.989828244709
 30
0.0
 10
438.0541909590104
 20
233.4182717443638
 30
0.0
 10
436.0995929949303
 20
234.1105810445133
 30
0.0
 10
430.2198856719231
 20
236.1102306206746
 30
0.0
 10
426.2835211750294
 20
237.3391693756928
 30
0.0
 10
414.4258168856295
 20
240.7202208260006
 30
0.0
 10
406.4559715553573
 20
242.5672308041982
 30
0.0
 10
390.389224415817
 20
245.4620579518732
 30
0.0
 10
382.2924327780074
 20
246.5105681063735
 30
0.0
 10
370.0514377799046
 20
247.4806982052801
 30
0.0
 10
365.9551034354695
 20
247.7034171061233
 30
0.0
 10
359.7861921554727
 20
247.8839565943427
 30
0.0
 10
357.7258178171166
 20
247.9185322438136
 30
0.0
 10
354.6290785835582
 20
247.9315374539472
 30
0.0
 10
353.5962105265876
 20
247.9319623350395
 30
0.0
 10
351.5309956923442
 20
247.9360909775213
 30
0.0
 10
350.4983856030346
 20
247.9381384905405
 30
0.0
 10
349.4657728767514
 20
247.9401694168401
 30
0.0
  0
SPLINE
  5
8B
330
1F
100
AcDbEntity
  8
0
  6
Continuous
 62
     7
370
    25
100
AcDbSpline
210
0.0
220
0.0
230
1.0
 70
     8
 71
     3
 72
   118
 73
   114
 74
     0
 42
0.000000001
 43
0.00000001
 40
0.0
 40
0.0
 40
0.0
 40
0.0
 40
0.00390625
 40
0.00390625
 40
0.0078125
 40
0.0078125
 40
0.015625
 40
0.015625
 40
0.03125
 40
0.03125
 40
0.0625
 40
0.0625
 40
0.09375
 40
0.09375
 40
0.109375
 40
0.109375
 40
0.1171875
 40
0.1171875
 40
0.125
 40
0.125
 40
0.1562499999999994
 40
0.1562499999999994
 40
0.1874999999999988
 40
0.1874999999999988
 40
0.2187499999999983
 40
0.2187499999999983
 40
0.2265624999999981
 40
0.2265624999999981
 40
0.2343749999999978
 40
0.2343749999999978
 40
0.2499999999999973
 40
0.2499999999999973
 40
0.2812499999999959
 40
0.2812499999999959
 40
0.3124999999999946
 40
0.3124999999999946
 40
0.3281249999999941
 40
0.3281249999999941
 40
0.3359374999999939
 40
0.3359374999999939
 40
0.3437499999999938
 40
0.3437499999999938
 40
0.3749999999999937
 40
0.3749999999999937
 40
0.4062499999999936
 40
0.4062499999999936
 40
0.4218749999999936
 40
0.4218749999999936
 40
0.4296874999999936
 40
0.4296874999999936
 40
0.4374999999999937
 40
0.4374999999999937
 40
0.4687499999999938
 40
0.4687499999999938
 40
0.4999999999999939
 40
0.4999999999999939
 40
0.531249999999994
 40
0.531249999999994
 40
0.539062499999994
 40
0.539062499999994
 40
0.546874999999994
 40
0.546874999999994
 40
0.5624999999999941
 40
0.5624999999999941
 40
0.5937499999999941
 40
0.5937499999999941
 40
0.6249999999999941
 40
0.6249999999999941
 40
0.640624999999994
 40
0.640624999999994
 40
0.648437499999994
 40
0.648437499999994
 40
0.656249999999994
 40
0.656249999999994
 40
0.6874999999999944
 40
0.6874999999999944
 40
0.7187499999999949
 40
0.7187499999999949
 40
0.7499999999999953
 40
0.7499999999999953
 40
0.7578124999999956
 40
0.7578124999999956
 40
0.7656249999999958
 40
0.7656249999999958
 40
0.781249999999996
 40
0.781249999999996
 40
0.8124999999999966
 40
0.8124999999999966
 40
0.8437499999999971
 40
0.8437499999999971
 40
0.8593749999999974
 40
0.8593749999999974
 40
0.8671874999999976
 40
0.8671874999999976
 40
0.8749999999999977
 40
0.8749999999999977
 40
0.9062499999999983
 40
0.9062499999999983
 40
0.937499999999999
 40
0.937499999999999
 40
0.9531249999999992
 40
0.9531249999999992
 40
0.9609374999999993
 40
0.9609374999999993
 40
0.9687499999999994
 40
0.9687499999999994
 40
0.9843749999999997
 40
0.9843749999999997
 40
0.9921874999999999
 40
0.9921874999999999
 40
0.99609375
 40
0.99609375
 40
1.0
 40
1.0
 40
1.0
 40
1.0
 10
-349.4999999990281
 20
247.9401020934034
 30
0.0
 10
-350.5325421301432
 20
247.9380709393029
 30
0.0
 10
-351.5650816230451
 20
247.9360231983223
 30
0.0
 10
-353.6301552619623
 20
247.9318940996144
 30
0.0
 10
-354.6629632265148
 20
247.9315342838528
 30
0.0
 10
-357.7594229696783
 20
247.9181059008864
 30
0.0
 10
-359.8196099374569
 20
247.883253500816
 30
0.0
 10
-365.9879559212487
 20
247.7018991019452
 30
0.0
 10
-370.0839091565929
 20
247.4786573620797
 30
0.0
 10
-382.3237476350403
 20
246.5070148239444
 30
0.0
 10
-390.4197507058469
 20
245.4575709704864
 30
0.0
 10
-406.4848827242597
 20
242.5610048826607
 30
0.0
 10
-414.4539016419773
 20
240.7131908723736
 30
0.0
 10
-426.3103372348957
 20
237.3310316327133
 30
0.0
 10
-430.246273909252
 20
236.101739580396
 30
0.0
 10
-436.1253317607001
 20
234.1015833391636
 30
0.0
 10
-438.0796386820866
 20
233.4091349509158
 30
0.0
 10
-441.9567687096683
 20
231.9804152290708
 30
0.0
 10
-443.8824492904616
 20
231.2431898135727
 30
0.0
 10
-453.4470864364012
 20
227.4438998657772
 30
0.0
 10
-460.8949965767552
 20
224.0427918960654
 30
0.0
 10
-475.3947642834875
 20
216.5377152450451
 30
0.0
 10
-482.446690799837
 20
212.4338689268485
 30
0.0
 10
-496.1524661360482
 20
203.5197216644573
 30
0.0
 10
-502.8060129031641
 20
198.7088846777741
 30
0.0
 10
-510.8661174999215
 20
192.2395532061383
 30
0.0
 10
-512.4674685089032
 20
190.9209295963844
 30
0.0
 10
-515.6285955253976
 20
188.2506591603634
 30
0.0
 10
-517.1892734782318
 20
186.8983942801962
 30
0.0
 10
-521.8122987359726
 20
182.7907689047963
 30
0.0
 10
-524.8156838698502
 20
179.9846176698118
 30
0.0
 10
-533.5933931252625
 20
171.3659319938681
 30
0.0
 10
-539.1355424233999
 20
165.353399302736
 30
0.0
 10
-549.6092690452286
 20
152.8023797075766
 30
0.0
 10
-554.5409253387809
 20
146.2639608291589
 30
0.0
 10
-561.4708121526774
 20
136.053538161556
 30
0.0
 10
-563.7025955716197
 20
132.5827197134795
 30
0.0
 10
-566.9307966703573
 20
127.2735756418765
 30
0.0
 10
-567.9845825917769
 20
125.490483917631
 30
0.0
 10
-570.0416661215835
 20
121.908535591212
 30
0.0
 10
-571.0459696800575
 20
120.1080322197668
 30
0.0
 10
-575.9475722579404
 20
111.0583709068323
 30
0.0
 10
-579.4862200744643
 20
103.6682098756046
 30
0.0
 10
-585.8129719152994
 20
88.59281284104657
 30
0.0
 10
-588.6008103306012
 20
80.90747241400116
 30
0.0
 10
-592.216888622425
 20
69.15706593912748
 30
0.0
 10
-593.327759415138
 20
65.20311573900278
 30
0.0
 10
-594.8501014588113
 20
59.21559118820941
 30
0.0
 10
-595.3335408106402
 20
57.21031096984362
 30
0.0
 10
-596.251857557257
 20
53.1806584850961
 30
0.0
 10
-596.6872901446388
 20
51.15343901819884
 30
0.0
 10
-598.7335862359196
 20
41.00853473609269
 30
0.0
 10
-599.9519955376542
 20
32.87680825742962
 30
0.0
 10
-601.581863967239
 20
16.58289319673967
 30
0.0
 10
-601.9932070231127
 20
8.420700233032994
 30
0.0
 10
-602.0092538421759
 20
-7.934136062081937
 30
0.0
 10
-601.6139464893944
 20
-16.12677981311391
 30
0.0
 10
-600.6041491797578
 20
-26.38705061484533
 30
0.0
 10
-600.3763331037454
 20
-28.44008085385989
 30
0.0
 10
-599.8683984334577
 20
-32.54811573473172
 30
0.0
 10
-599.5882314082858
 20
-34.6027400513366
 30
0.0
 10
-598.6740150926502
 20
-40.73479772198171
 30
0.0
 10
-597.9649570126679
 20
-44.7920767876233
 30
0.0
 10
-595.5439148026921
 20
-56.87314125595739
 30
0.0
 10
-593.5390002046919
 20
-64.80644351458533
 30
0.0
 10
-588.7617138209066
 20
-80.43598856937432
 30
0.0
 10
-585.9893488492908
 20
-88.13223347036073
 30
0.0
 10
-581.2450910995354
 20
-99.49568106596153
 30
0.0
 10
-579.5658766197106
 20
-103.253289012072
 30
0.0
 10
-576.89797433188
 20
-108.8436515099815
 30
0.0
 10
-575.9832805660758
 20
-110.7004695954333
 30
0.0
 10
-574.1058498450692
 20
-114.3941313276786
 30
0.0
 10
-573.1460171135732
 20
-116.2253283378466
 30
0.0
 10
-568.2424818851391
 20
-125.3040438220091
 30
0.0
 10
-563.9866104623943
 20
-132.3204537919589
 30
0.0
 10
-554.8241950295417
 20
-145.8715602880905
 30
0.0
 10
-549.917928921387
 20
-152.4064625538558
 30
0.0
 10
-539.4551794448994
 20
-164.9948907346964
 30
0.0
 10
-533.8987088847398
 20
-171.0484261320672
 30
0.0
 10
-526.5318636829601
 20
-178.3034755307433
 30
0.0
 10
-525.0355541636169
 20
-179.740521702022
 30
0.0
 10
-522.0161422635387
 20
-182.5683740699961
 30
0.0
 10
-520.4917172981249
 20
-183.9605710988528
 30
0.0
 10
-515.8747906072731
 20
-188.0727206047365
 30
0.0
 10
-512.7386706273679
 20
-190.7282810151911
 30
0.0
 10
-503.1585631151027
 20
-198.4414174575624
 30
0.0
 10
-496.5432643365144
 20
-203.2460928334011
 30
0.0
 10
-482.8582207736368
 20
-212.184561226078
 30
0.0
 10
-475.7888475964973
 20
-216.3189028332391
 30
0.0
 10
-464.8381683005942
 20
-222.0087132481976
 30
0.0
 10
-461.1300439186447
 20
-223.8198440503189
 30
0.0
 10
-455.4789930339197
 20
-226.4053530532962
 30
0.0
 10
-453.5852118409787
 20
-227.243101111508
 30
0.0
 10
-449.7873510354755
 20
-228.8664895143835
 30
0.0
 10
-447.8817474736063
 20
-229.6528198788147
 30
0.0
 10
-438.3207387488499
 20
-233.459077388248
 30
0.0
 10
-430.5666746741624
 20
-236.1040144402262
 30
0.0
 10
-414.8527569319567
 20
-240.6117082307174
 30
0.0
 10
-406.8928419930719
 20
-242.4742320844819
 30
0.0
 10
-394.7968256691819
 20
-244.6745345157465
 30
0.0
 10
-390.7387835598894
 20
-245.3090065649932
 30
0.0
 10
-384.6121247711451
 20
-246.1102166579077
 30
0.0
 10
-382.5633020132479
 20
-246.3521889034289
 30
0.0
 10
-378.4523121367215
 20
-246.7854131606794
 30
0.0
 10
-376.3882100442596
 20
-246.9768033568726
 30
0.0
 10
-370.193135468019
 20
-247.4726227503777
 30
0.0
 10
-366.0593174080076
 20
-247.6990244579666
 30
0.0
 10
-359.8529466701297
 20
-247.882655211844
 30
0.0
 10
-357.7832152959704
 20
-247.9178557846323
 30
0.0
 10
-354.6772030307577
 20
-247.9315450749897
 30
0.0
 10
-353.6417122884368
 20
-247.9318708966881
 30
0.0
 10
-351.5708570563562
 20
-247.93601174434
 30
0.0
 10
-350.5354288285422
 20
-247.9380652607651
 30
0.0
 10
-349.4999999970461
 20
-247.940102093407
 30
0.0
  0
SPLINE
  5
8D
330
1F
100
AcDbEntity
  8
0
  6
Continuous
 62
     7
370
    25
100
AcDbSpline
210
0.0
220
0.0
230
1.0
 70
     8
 71
     3
 72
    14
 73
    10
 74
     0
 42
0.000000001
 43
0.00000001
 40
0.0
 40
0.0
 40
0.0
 40
0.0
 40
0.25
 40
0.25
 40
0.5
 40
0.5
 40
0.75
 40
0.75
 40
1.0
 40
1.0
 40
1.0
 40
1.0
 10
349.4657728767515
 20
247.9401694168403
 30
0.0
 10
291.218686637196
 20
248.0547288603799
 30
0.0
 10
232.9715516232916
 20
248.1184752983395
 30
0.0
 10
116.4772348601435
 20
248.1972794045772
 30
0.0
 10
58.23004497072979
 20
248.2115782922832
 30
0.0
 10
-58.26430134937043
 20
248.211572363656
 30
0.0
 10
-116.5114657022803
 20
248.1972664511793
 30
0.0
 10
-233.0057634892906
 20
248.1184419467752
 30
0.0
 10
-291.2528973906877
 20
248.0546822521582
 30
0.0
 10
-349.499999999028
 20
247.9401020934033
 30
0.0
  0
SPLINE
  5
8E
330
1F
100
AcDbEntity
  8
0
  6
Continuous
 62
     7
370
    25
100
AcDbSpline
210
0.0
220
0.0
230
1.0
 70
     8
 71
     3
 72
    14
 73
    10
 74
     0
 42
0.000000001
 43
0.00000001
 40
0.0
 40
0.0
 40
0.0
 40
0.0
 40
0.2500000000000001
 40
0.2500000000000001
 40
0.5000000000000001
 40
0.5000000000000001
 40
0.7500000000000002
 40
0.7500000000000002
 40
1.0
 40
1.0
 40
1.0
 40
1.0
 10
-349.4999999970462
 20
-247.9401020934073
 30
0.0
 10
-291.2528973927628
 20
-248.0546822521526
 30
0.0
 10
-233.0057634918821
 20
-248.118441946773
 30
0.0
 10
-116.5114657025119
 20
-248.1972664511791
 30
0.0
 10
-58.26430134667308
 20
-248.2115723636572
 30
0.0
 10
58.23004498127821
 20
-248.2115782922816
 30
0.0
 10
116.477234867598
 20
-248.197279404573
 30
0.0
 10
232.9715516220537
 20
-248.1184752983385
 30
0.0
 10
291.2186866337743
 20
-248.0547288603862
 30
0.0
 10
349.4657728756596
 20
-247.9401694168386
 30
0.0
  0
CIRCLE
  5
8F
330
1F
100
AcDbEntity
  8
0
  6
Continuous
 62
     7
370
    25
100
AcDbCircle
 10
0.0
 20
0.0
 30
0.0
 40
26.0
  0
CIRCLE
  5
90
330
1F
100
AcDbEntity
  8
0
  6
Continuous
 62
     7
370
    25
100
AcDbCircle
 10
0.0
 20
0.0
 30
0.0
 40
40.99999999999991
  0
LINE
  5
93
330
1F
100
AcDbEntity
  8
0
  6
Continuous
 62
     7
370
    25
100
AcDbLine
 10
-440.0
 20
400.0
 30
0.0
 11
440.0
 21
400.0
 31
0.0
  0
LINE
  5
94
330
1F
100
AcDbEntity
  8
0
  6
Continuous
 62
     7
370
    25
100
AcDbLine
 10
-440.0
 20
-400.0
 30
0.0
 11
440.000000003
 21
-400.0
 31
0.0
  0
LINE
  5
95
330
1F
100
AcDbEntity
  8
0
  6
Continuous
 62
     7
370
    25
100
AcDbLine
 10
-439.9999999993
 20
-385.0
 30
0.0
 11
440.0000000033
 21
-385.0
 31
0.0
  0
LINE
  5
96
330
1F
100
AcDbEntity
  8
0
  6
Continuous
 62
     7
370
    25
100
AcDbLine
 10
440.0
 20
385.0
 30
0.0
 11
-440.0
 21
385.0
 31
0.0
  0
LINE
  5
97
330
1F
100
AcDbEntity
  8
0
  6
Continuous
 62
     7
370
    25
100
AcDbLine
 10
355.1607076362
 20
-265.3397410207
 30
0.0
 11
349.4999999994
 21
-265.3427524469
 31
0.0
  0
LINE
  5
98
330
1F
100
AcDbEntity
  8
0
  6
Continuous
 62
     7
370
    25
100
AcDbLine
 10
349.5000000005
 20
265.3427524469
 30
0.0
 11
355.1607076361
 21
265.3397410207
 31
0.0
  0
LINE
  5
99
330
1F
100
AcDbEntity
  8
0
  6
Continuous
 62
     7
370
    25
100
AcDbLine
 10
-355.1607076361
 20
265.3397410207
 30
0.0
 11
-349.5342333996
 21
265.3427346005
 31
0.0
  0
LINE
  5
9A
330
1F
100
AcDbEntity
  8
0
  6
Continuous
 62
     7
370
    25
100
AcDbLine
 10
-349.5342333976
 20
-265.3427346005
 30
0.0
 11
-355.1607076361
 21
-265.3397410207
 31
0.0
  0
LINE
  5
9B
330
1F
100
AcDbEntity
  8
0
  6
Continuous
 62
     7
370
    25
100
AcDbLine
 10
349.4999999994
 20
-265.3427524469
 30
0.0
 11
349.4657728757
 21
-247.9401694168
 31
0.0
  0
LINE
  5
9C
330
1F
100
AcDbEntity
  8
0
  6
Continuous
 62
     7
370
    25
100
AcDbLine
 10
349.4657728768
 20
247.9401694168
 30
0.0
 11
349.5000000005
 21
265.3427524469
 31
0.0
  0
LINE
  5
9D
330
1F
100
AcDbEntity
  8
0
  6
Continuous
 62
     7
370
    25
100
AcDbLine
 10
-349.499999999
 20
247.9401020934
 30
0.0
 11
-349.5342333996
 21
265.3427346005
 31
0.0
  0
LINE
  5
9E
330
1F
100
AcDbEntity
  8
0
  6
Continuous
 62
     7
370
    25
100
AcDbLine
 10
-349.5342333976
 20
-265.3427346005
 30
0.0
 11
-349.499999997
 21
-247.9401020934
 31
0.0
  0
LINE
  5
9F
330
1F
100
AcDbEntity
  8
0
  6
Continuous
 62
     8
370
    25
100
AcDbLine
 10
-40.0
 20
382.4833748109
 30
0.0
 11
-40.0
 21
380.7081892559
 31
0.0
  0
LINE
  5
A0
330
1F
100
AcDbEntity
  8
0
  6
Continuous
 62
     8
370
    25
100
AcDbLine
 10
40.0
 20
382.4833748109
 30
0.0
 11
40.0
 21
380.7081892559
 31
0.0
  0
ARC
  5
A1
330
1F
100
AcDbEntity
  8
0
  6
Continuous
 62
     7
370
    25
100
AcDbCircle
 10
440.0
 20
0.0
 30
0.0
 40
399.9999999999999
100
AcDbArc
 50
270.0000000004
 51
90.0
  0
ARC
  5
A2
330
1F
100
AcDbEntity
  8
0
  6
Continuous
 62
     7
370
    25
100
AcDbCircle
 10
-440.0
 20
0.0
 30
0.0
 40
400.0000000000001
100
AcDbArc
 50
90.0
 51
270.0
  0
ARC
  5
A3
330
1F
100
AcDbEntity
  8
0
  6
Continuous
 62
     7
370
    25
100
AcDbCircle
 10
-440.0
 20
0.0
 30
0.0
 40
385.0000000000001
100
AcDbArc
 50
90.0
 51
270.0000000001
  0
ARC
  5
A4
330
1F
100
AcDbEntity
  8
0
  6
Continuous
 62
     7
370
    25
100
AcDbCircle
 10
440.0
 20
0.0
 30
0.0
 40
384.9999999999998
100
AcDbArc
 50
270.0000000005
 51
90.0
  0
SPLINE
  5
A5
330
1B
100
AcDbEntity
 67
     1
  8
0
  6
Continuous
 62
     7
370
    25
100
AcDbSpline
210
0.0
220
0.0
230
1.0
 70
     8
 71
     3
 72
    41
 73
    37
 74
     0
 42
0.000000001
 43
0.00000001
 40
0.0
 40
0.0
 40
0.0
 40
0.0
 40
0.0350852023455997
 40
0.0827059599235369
 40
0.1289729558688717
 40
0.1738951973399769
 40
0.2174806129544863
 40
0.2597361518034884
 40
0.3078379482069977
 40
0.3541094034332919
 40
0.3985576090052277
 40
0.4411884108598105
 40
0.4828206960349187
 40
0.5225695406707384
 40
0.560437964824495
 40
0.5964281512445583
 40
0.630541548999049
 40
0.6627789695299323
 40
0.6931406761399046
 40
0.7215663601018907
 40
0.7481237230148483
 40
0.7728118724708786
 40
0.7956296750554919
 40
0.8165758206584776
 40
0.8355195422550352
 40
0.8537072502090616
 40
0.8712395774103607
 40
0.8881161477136976
 40
0.9095974205793943
 40
0.9299111126356989
 40
0.9490560877515962
 40
0.9576759027390789
 40
0.9663281876631378
 40
0.9762022825045044
 40
0.9874258030126098
 40
1.0
 40
1.0
 40
1.0
 40
1.0
 10
270.5142346629508
 20
-558.7306014893102
 30
0.0
 10
273.4841937326518
 20
-552.6511066832763
 30
0.0
 10
280.4852454402546
 20
-538.3199807336424
 30
0.0
 10
290.7670077019586
 20
-515.669386288934
 30
0.0
 10
301.3803866741571
 20
-491.0934755903406
 30
0.0
 10
311.169480836141
 20
-467.0148639395415
 30
0.0
 10
320.1992501773111
 20
-443.4685875247567
 30
0.0
 10
328.9742538096973
 20
-419.1732274555728
 30
0.0
 10
337.4141792356824
 20
-394.2114075207517
 30
0.0
 10
345.4426299759679
 20
-368.6708297192015
 30
0.0
 10
352.6464622657394
 20
-343.9829428513745
 30
0.0
 10
359.1260165437881
 20
-320.02094908615
 30
0.0
 10
364.9250896788608
 20
-296.8184077170432
 30
0.0
 10
370.0872400922354
 20
-274.4075746106357
 30
0.0
 10
374.6272101637225
 20
-252.9736375960733
 30
0.0
 10
378.598924831063
 20
-232.5333684651982
 30
0.0
 10
382.0538880155303
 20
-213.101598615273
 30
0.0
 10
385.0411417694683
 20
-194.691391307839
 30
0.0
 10
387.6055356635308
 20
-177.3256675811415
 30
0.0
 10
389.7918177409404
 20
-161.0129357183328
 30
0.0
 10
391.6420093121525
 20
-145.7603471457363
 30
0.0
 10
393.1964546612182
 20
-131.5623038145922
 30
0.0
 10
394.4911428823708
 20
-118.4252109067721
 30
0.0
 10
395.5572312771044
 20
-106.3793842704356
 30
0.0
 10
396.4432576926808
 20
-95.2145022482857
 30
0.0
 10
397.1883500676299
 20
-84.69923143922937
 30
0.0
 10
397.822974636263
 20
-74.57611507499215
 30
0.0
 10
398.4130612694229
 20
-63.81416018048714
 30
0.0
 10
398.9338516542849
 20
-52.51157490886099
 30
0.0
 10
399.363056239815
 20
-40.76742137350875
 30
0.0
 10
399.6184641116425
 20
-31.49921874358097
 30
0.0
 10
399.7675054722519
 20
-24.47801389212428
 30
0.0
 10
399.858150876941
 20
-19.24383299590915
 30
0.0
 10
399.9327467139886
 20
-13.50724864706998
 30
0.0
 10
399.9885127839994
 20
-7.014074185178687
 30
0.0
 10
399.9960287348388
 20
-2.424847626046833
 30
0.0
 10
399.9999999999998
 20
0.0
 30
0.0
  0
SPLINE
  5
A6
330
1B
100
AcDbEntity
 67
     1
  8
0
  6
Continuous
 62
     7
370
    25
100
AcDbSpline
210
0.0
220
0.0
230
1.0
 70
     8
 71
     3
 72
    44
 73
    40
 74
     0
 42
0.000000001
 43
0.00000001
 40
0.0
 40
0.0
 40
0.0
 40
0.0
 40
0.0095948030984816
 40
0.017512780286664
 40
0.0241391958663714
 40
0.0305430035826245
 40
0.036787125935421
 40
0.048587789976296
 40
0.0597732806788607
 40
0.0673866001375125
 40
0.0750089821593247
 40
0.0838269119696064
 40
0.0939498792021004
 40
0.1053770736025714
 40
0.1218438953243843
 40
0.1404292645908421
 40
0.1611312135173737
 40
0.1839477802613786
 40
0.2088770807163821
 40
0.2359173862586225
 40
0.2650672074097676
 40
0.2962548904885469
 40
0.3295410061053719
 40
0.3649253431811565
 40
0.4024083191787236
 40
0.4419910948031989
 40
0.4829129037385287
 40
0.5258650020894737
 40
0.5708513086109331
 40
0.6178769469816036
 40
0.6569703755262674
 40
0.6973771498421332
 40
0.7391019859215271
 40
0.7821503617422154
 40
0.8265285933328678
 40
0.8714158307957057
 40
0.917600643423283
 40
0.9650918776611757
 40
1.0
 40
1.0
 40
1.0
 40
1.0
 10
-400.0
 20
0.0
 30
0.0
 10
-399.997701129828
 20
-1.850290411055222
 30
0.0
 10
-399.9935051491689
 20
-5.227507129599296
 30
0.0
 10
-399.9637270673645
 20
-9.882498998791789
 30
0.0
 10
-399.9256503409356
 20
-13.92203335232134
 30
0.0
 10
-399.879337960242
 20
-17.638670034757
 30
0.0
 10
-399.8071046904625
 20
-22.35285741184978
 30
0.0
 10
-399.6975677603714
 20
-27.98867142854039
 30
0.0
 10
-399.5520432254013
 20
-33.88779142035525
 30
0.0
 10
-399.4045931814074
 20
-38.98080402789156
 30
0.0
 10
-399.2542770910869
 20
-43.61694708465392
 30
0.0
 10
-399.069118710223
 20
-48.73615079517696
 30
0.0
 10
-398.8322078853889
 20
-54.58764615368558
 30
0.0
 10
-398.4996947468235
 20
-61.91143491934501
 30
0.0
 10
-398.0363170809077
 20
-70.86275149049153
 30
0.0
 10
-397.3948155687701
 20
-81.59550974404931
 30
0.0
 10
-396.5733647969317
 20
-93.54377094456434
 30
0.0
 10
-395.5375903402625
 20
-106.7029772263801
 30
0.0
 10
-394.2496999057389
 20
-121.0676443694599
 30
0.0
 10
-392.6685151774725
 20
-136.6312238576639
 30
0.0
 10
-390.7510533081635
 20
-153.3724506045971
 30
0.0
 10
-388.4503554721034
 20
-171.2805157001961
 30
0.0
 10
-385.7163995767302
 20
-190.3431227430508
 30
0.0
 10
-382.4936980713227
 20
-210.5596817559327
 30
0.0
 10
-378.7251145222118
 20
-231.9159665297862
 30
0.0
 10
-374.3785045051558
 20
-254.2512446552961
 30
0.0
 10
-369.4029652677823
 20
-277.534661751799
 30
0.0
 10
-363.7466635905222
 20
-301.7337554313959
 30
0.0
 10
-357.3163409720312
 20
-326.9555968687316
 30
0.0
 10
-350.5581018018378
 20
-351.3204078984767
 30
0.0
 10
-343.5765073669377
 20
-374.7011229132978
 30
0.0
 10
-336.4831479017141
 20
-396.9777583450033
 30
0.0
 10
-328.7295272472817
 20
-419.840246624934
 30
0.0
 10
-320.2765563121898
 20
-443.2695750640755
 30
0.0
 10
-311.1393821915839
 20
-467.0949980183204
 30
0.0
 10
-301.2967331764514
 20
-491.2924795221922
 30
0.0
 10
-290.6983537932028
 20
-515.8230305646395
 30
0.0
 10
-280.4450373412229
 20
-538.4041607952644
 30
0.0
 10
-273.4696287258367
 20
-552.6819976163537
 30
0.0
 10
-270.5145277708617
 20
-558.7307399268634
 30
0.0
  0
LWPOLYLINE
  5
AB
330
1B
100
AcDbEntity
 67
     1
  8
0
  6
Continuous
 62
     7
370
    25
100
AcDbPolyline
 90
        3
 70
   128
 43
0.0
 10
252.2535974539
 20
-569.9999984256
 10
255.0937888058
 20
-569.7961644924
 10
257.1209804352
 20
-569.3966785771
  0
SPLINE
  5
AF
330
1B
100
AcDbEntity
 67
     1
  8
0
  6
Continuous
 62
     7
370
    25
100
AcDbSpline
210
0.0
220
0.0
230
1.0
 70
     8
 71
     3
 72
   117
 73
   113
 74
     0
 42
0.000000001
 43
0.00000001
 40
0.0
 40
0.0
 40
0.0
 40
0.0
 40
0.0039062499999999
 40
0.0039062499999999
 40
0.0078124999999997
 40
0.0078124999999997
 40
0.0156249999999997
 40
0.0234374999999996
 40
0.0234374999999996
 40
0.0312499999999995
 40
0.0312499999999995
 40
0.0624999999999987
 40
0.0624999999999987
 40
0.0937499999999978
 40
0.0937499999999978
 40
0.1249999999999969
 40
0.1249999999999969
 40
0.1328124999999966
 40
0.1328124999999966
 40
0.1406249999999963
 40
0.1406249999999963
 40
0.1562499999999959
 40
0.1562499999999959
 40
0.187499999999995
 40
0.187499999999995
 40
0.2187499999999939
 40
0.2187499999999939
 40
0.2343749999999935
 40
0.2343749999999935
 40
0.2421874999999933
 40
0.2421874999999933
 40
0.2499999999999932
 40
0.2499999999999932
 40
0.2812499999999927
 40
0.2812499999999927
 40
0.3124999999999921
 40
0.3124999999999921
 40
0.3437499999999916
 40
0.3437499999999916
 40
0.3515624999999916
 40
0.3515624999999916
 40
0.3593749999999917
 40
0.3593749999999917
 40
0.3749999999999918
 40
0.3749999999999918
 40
0.4062499999999922
 40
0.4062499999999922
 40
0.4374999999999927
 40
0.4374999999999927
 40
0.4531249999999929
 40
0.4531249999999929
 40
0.460937499999993
 40
0.460937499999993
 40
0.4687499999999931
 40
0.4687499999999931
 40
0.4999999999999937
 40
0.4999999999999937
 40
0.5312499999999942
 40
0.5312499999999942
 40
0.5624999999999948
 40
0.5624999999999948
 40
0.5703124999999949
 40
0.5703124999999949
 40
0.5781249999999951
 40
0.5781249999999951
 40
0.5937499999999953
 40
0.5937499999999953
 40
0.6249999999999959
 40
0.6249999999999959
 40
0.6562499999999964
 40
0.6562499999999964
 40
0.6718749999999966
 40
0.6718749999999966
 40
0.6796874999999966
 40
0.6796874999999966
 40
0.6874999999999966
 40
0.6874999999999966
 40
0.7187499999999968
 40
0.7187499999999968
 40
0.749999999999997
 40
0.749999999999997
 40
0.7656249999999971
 40
0.7656249999999971
 40
0.7812499999999971
 40
0.7812499999999971
 40
0.8124999999999977
 40
0.8124999999999977
 40
0.843749999999998
 40
0.843749999999998
 40
0.8749999999999983
 40
0.8749999999999983
 40
0.8906249999999984
 40
0.8906249999999984
 40
0.8984374999999986
 40
0.8984374999999986
 40
0.9062499999999987
 40
0.9062499999999987
 40
0.9374999999999989
 40
0.9374999999999989
 40
0.9687499999999992
 40
0.9687499999999992
 40
0.9843749999999996
 40
0.9843749999999996
 40
0.9921874999999994
 40
0.9921874999999994
 40
0.9960937499999994
 40
0.9980468749999996
 40
0.9990234374999996
 40
0.9995117187499997
 40
0.9997558593749999
 40
0.9997558593749999
 40
1.0
 40
1.0
 40
1.0
 40
1.0
 10
-270.3982813480924
 20
-558.2969279020012
 30
0.0
 10
-270.3847818833991
 20
-558.3204575131929
 30
0.0
 10
-270.3644203500559
 20
-558.3440230086335
 30
0.0
 10
-270.310080823072
 20
-558.3910828821444
 30
0.0
 10
-270.2760891935869
 20
-558.4146012474657
 30
0.0
 10
-270.1536769619003
 20
-558.4851231398704
 30
0.0
 10
-269.9359680817856
 20
-558.5790638187574
 30
0.0
 10
-269.6094066561118
 20
-558.6728428223905
 30
0.0
 10
-269.2283712814615
 20
-558.7665481860628
 30
0.0
 10
-269.0103817317035
 20
-558.8134055074387
 30
0.0
 10
-267.7873804025036
 20
-559.046882987863
 30
0.0
 10
-266.3851598231513
 20
-559.2311208647868
 30
0.0
 10
-262.7581207690487
 20
-559.5953759772507
 30
0.0
 10
-260.5334273602273
 20
-559.7745067650297
 30
0.0
 10
-255.2678011476512
 20
-560.1266833271663
 30
0.0
 10
-252.2269301747253
 20
-560.2997899857629
 30
0.0
 10
-247.9019391802137
 20
-560.5127785475188
 30
0.0
 10
-247.0106627388983
 20
-560.5552022449151
 30
0.0
 10
-245.175113748287
 20
-560.6395564410392
 30
0.0
 10
-244.2297686058305
 20
-560.6815496276798
 30
0.0
 10
-241.3289285056935
 20
-560.806202803497
 30
0.0
 10
-239.3049865572
 20
-560.887719550859
 30
0.0
 10
-232.9685478979598
 20
-561.1277293573504
 30
0.0
 10
-228.3922010173241
 20
-561.2816726856181
 30
0.0
 10
-218.5459984454358
 20
-561.578467221755
 30
0.0
 10
-213.2761560679574
 20
-561.7207251824469
 30
0.0
 10
-204.8477355947235
 20
-561.9250129365221
 30
0.0
 10
-201.9507964420855
 20
-561.991610803121
 30
0.0
 10
-197.4720082437521
 20
-562.0893250604321
 30
0.0
 10
-195.9568363096558
 20
-562.1215328026058
 30
0.0
 10
-192.8814870262507
 20
-562.1852288315184
 30
0.0
 10
-191.3216854458788
 20
-562.2167064650871
 30
0.0
 10
-183.4531335073487
 20
-562.371464975143
 30
0.0
 10
-176.9028941393689
 20
-562.4870881389553
 30
0.0
 10
-163.30878373728
 20
-562.7031513901164
 30
0.0
 10
-156.2648531422426
 20
-562.8036469610526
 30
0.0
 10
-141.6829017647561
 20
-562.9906081436953
 30
0.0
 10
-134.144963309664
 20
-563.0766669374808
 30
0.0
 10
-124.4067135276913
 20
-563.1752399781377
 30
0.0
 10
-122.443228194261
 20
-563.1945042954577
 30
0.0
 10
-118.484228403487
 20
-563.232138059431
 30
0.0
 10
-116.4949679530654
 20
-563.2504477222802
 30
0.0
 10
-110.506446919109
 20
-563.303815599072
 30
0.0
 10
-106.4829016017487
 20
-563.337349008093
 30
0.0
 10
-94.32012071058527
 20
-563.4320394874281
 30
0.0
 10
-86.08904682233522
 20
-563.4870321322495
 30
0.0
 10
-69.385923575189
 20
-563.5816430322093
 30
0.0
 10
-60.91386891725376
 20
-563.6212659309416
 30
0.0
 10
-48.02192401731597
 20
-563.6692775356915
 30
0.0
 10
-43.69390747305311
 20
-563.6833315714082
 30
0.0
 10
-37.15511488005505
 20
-563.7014680466399
 30
0.0
 10
-34.96512028426469
 20
-563.7070283751999
 30
0.0
 10
-30.58219157365628
 20
-563.7171288814937
 30
0.0
 10
-28.39180639085927
 20
-563.7216645892
 30
0.0
 10
-17.44521642989253
 20
-563.7417960180809
 30
0.0
 10
-8.704973834133837
 20
-563.7497957794575
 30
0.0
 10
8.742225687983982
 20
-563.7497728330748
 30
0.0
 10
17.44918115709218
 20
-563.7417499256853
 30
0.0
 10
34.82980776697978
 20
-563.7098632432045
 30
0.0
 10
43.50348310706877
 20
-563.6860029309428
 30
0.0
 10
54.32405895885722
 20
-563.6458317393545
 30
0.0
 10
56.4893007403824
 20
-563.6372766936598
 30
0.0
 10
60.79559322559187
 20
-563.6192282308999
 30
0.0
 10
62.93886607105441
 20
-563.6097276209421
 30
0.0
 10
69.3393957816045
 20
-563.5798051062351
 30
0.0
 10
73.56738530078447
 20
-563.5579646712486
 30
0.0
 10
86.13611285509896
 20
-563.4867524076378
 30
0.0
 10
94.36193407317631
 20
-563.4317188062672
 30
0.0
 10
110.5087350478827
 20
-563.306001974574
 30
0.0
 10
118.4296643787481
 20
-563.2356077096172
 30
0.0
 10
130.0785700885238
 20
-563.1178927173602
 30
0.0
 10
133.9227086599579
 20
-563.0766281885352
 30
0.0
 10
139.6294162036637
 20
-563.0115385270684
 30
0.0
 10
141.5194466147968
 20
-562.9893334496021
 30
0.0
 10
145.2597412861013
 20
-562.9440759721161
 30
0.0
 10
147.1122782980235
 20
-562.9209895873588
 30
0.0
 10
156.2875967189183
 20
-562.8033802974404
 30
0.0
 10
163.34905630788
 20
-562.7025477306506
 30
0.0
 10
176.9274779278643
 20
-562.4866608043925
 30
0.0
 10
183.4444317813955
 20
-562.3715529751406
 30
0.0
 10
192.8070134349517
 20
-562.187534024162
 30
0.0
 10
195.8589039479307
 20
-562.1244226203592
 30
0.0
 10
201.823039872563
 20
-561.9944899126791
 30
0.0
 10
204.7364115036573
 20
-561.9276399831596
 30
0.0
 10
213.2557154109533
 20
-561.7213600613584
 30
0.0
 10
218.5542993557874
 20
-561.5782498183331
 30
0.0
 10
228.4140845410755
 20
-561.2809801376641
 30
0.0
 10
232.975198858804
 20
-561.1274117840545
 30
0.0
 10
241.3674762600773
 20
-560.809662471832
 30
0.0
 10
245.198671806706
 20
-560.6453972926515
 30
0.0
 10
250.3847268529707
 20
-560.3907523469888
 30
0.0
 10
252.0197297367257
 20
-560.3046707432403
 30
0.0
 10
254.3289907535434
 20
-560.1736506234107
 30
0.0
 10
255.0752489840613
 20
-560.1296318557455
 30
0.0
 10
256.5121644418471
 20
-560.0414017149834
 30
0.0
 10
257.2037972066909
 20
-559.9971366620226
 30
0.0
 10
260.5289669749445
 20
-559.7750498361876
 30
0.0
 10
262.7646746951042
 20
-559.5948707211769
 30
0.0
 10
266.3977040197125
 20
-559.2297073349756
 30
0.0
 10
267.794840017584
 20
-559.0456061401648
 30
0.0
 10
269.2551453063758
 20
-558.7666049238472
 30
0.0
 10
269.6358468250546
 20
-558.6731127884372
 30
0.0
 10
270.0446084481175
 20
-558.5321858052458
 30
0.0
 10
270.1535629060597
 20
-558.4851810540684
 30
0.0
 10
270.2760553955153
 20
-558.414624611041
 30
0.0
 10
270.3270655107236
 20
-558.379334055502
 30
0.0
 10
270.3686523017078
 20
-558.3381388590524
 30
0.0
 10
270.3849619381502
 20
-558.317535374041
 30
0.0
 10
270.3919954748063
 20
-558.3072321389167
 30
0.0
 10
270.3947695334228
 20
-558.3028161446185
 30
0.0
 10
270.3965654980947
 20
-558.2998720765905
 30
0.0
 10
270.3974283162847
 20
-558.2967157845331
 30
0.0
 10
270.3982813480925
 20
-558.2969279020012
 30
0.0
  0
SPLINE
  5
B3
330
1B
100
AcDbEntity
 67
     1
  8
0
  6
Continuous
 62
     7
370
    25
100
AcDbSpline
210
0.0
220
0.0
230
1.0
 70
    24
 71
     3
 72
   114
 73
   110
 74
     0
 42
0.000000001
 43
0.00000001
 40
0.0
 40
0.0
 40
0.0
 40
0.0
 40
0.00390625
 40
0.00390625
 40
0.0078125000000001
 40
0.0078125000000001
 40
0.0156250000000004
 40
0.0156250000000004
 40
0.0312500000000007
 40
0.0312500000000007
 40
0.0625000000000014
 40
0.0625000000000014
 40
0.0937500000000021
 40
0.0937500000000021
 40
0.1093750000000024
 40
0.1093750000000024
 40
0.1171875000000025
 40
0.1171875000000025
 40
0.1250000000000026
 40
0.1250000000000026
 40
0.1562500000000029
 40
0.1562500000000029
 40
0.1875000000000032
 40
0.1875000000000032
 40
0.2187500000000038
 40
0.2187500000000038
 40
0.2265625000000038
 40
0.2265625000000038
 40
0.2343750000000039
 40
0.2343750000000039
 40
0.2500000000000039
 40
0.2500000000000039
 40
0.2812500000000038
 40
0.2812500000000038
 40
0.3125000000000036
 40
0.3125000000000036
 40
0.3281250000000036
 40
0.3281250000000036
 40
0.3437500000000036
 40
0.3437500000000036
 40
0.3750000000000038
 40
0.3750000000000038
 40
0.4062500000000041
 40
0.4062500000000041
 40
0.4218750000000041
 40
0.4218750000000041
 40
0.4296875000000041
 40
0.4296875000000041
 40
0.4375000000000041
 40
0.4375000000000041
 40
0.4687500000000041
 40
0.4687500000000041
 40
0.500000000000004
 40
0.500000000000004
 40
0.531250000000004
 40
0.531250000000004
 40
0.539062500000004
 40
0.539062500000004
 40
0.5468750000000041
 40
0.5468750000000041
 40
0.5625000000000041
 40
0.5625000000000041
 40
0.5937500000000043
 40
0.5937500000000043
 40
0.6250000000000044
 40
0.6250000000000044
 40
0.6406250000000047
 40
0.6406250000000047
 40
0.6484375000000047
 40
0.6484375000000047
 40
0.6562500000000048
 40
0.6562500000000048
 40
0.6875000000000053
 40
0.6875000000000053
 40
0.718750000000006
 40
0.718750000000006
 40
0.7500000000000066
 40
0.7500000000000066
 40
0.7578125000000064
 40
0.7578125000000064
 40
0.7656250000000063
 40
0.7656250000000063
 40
0.7812500000000058
 40
0.7812500000000058
 40
0.812500000000005
 40
0.812500000000005
 40
0.8437500000000041
 40
0.8437500000000041
 40
0.8593750000000037
 40
0.8593750000000037
 40
0.8750000000000033
 40
0.8750000000000033
 40
0.9062500000000023
 40
0.9062500000000023
 40
0.9375000000000014
 40
0.9375000000000014
 40
0.9531250000000009
 40
0.9531250000000009
 40
0.9609375000000008
 40
0.9609375000000008
 40
0.9687500000000006
 40
0.9687500000000006
 40
0.9843750000000003
 40
0.9843750000000003
 40
0.9921875000000001
 40
0.9921875000000001
 40
0.9960937500000001
 40
0.9960937500000001
 40
1.0
 40
1.0
 40
1.0
 40
1.0
 10
252.2133273599773
 20
-570.0
 30
0.0
 10
252.2107483728377
 20
-570.0
 30
0.0
 10
252.208152152505
 20
-569.9999999999998
 30
0.0
 10
252.2029249013761
 20
-569.9999999999994
 30
0.0
 10
252.2024579864792
 20
-570.0000000000002
 30
0.0
 10
252.1803297389635
 20
-570.0000000000002
 30
0.0
 10
252.1393765691667
 20
-570.0000000000002
 30
0.0
 10
251.9388133584548
 20
-570.0000000000002
 30
0.0
 10
251.7015573995801
 20
-570.0000000000002
 30
0.0
 10
250.6842058082394
 20
-570.0000000000001
 30
0.0
 10
249.5994110647755
 20
-569.9999999999999
 30
0.0
 10
246.6219918773976
 20
-569.9999999999997
 30
0.0
 10
244.7286805169906
 20
-570.0000000000001
 30
0.0
 10
241.2703731457043
 20
-570.0000000000001
 30
0.0
 10
240.0143756147739
 20
-570.0000000000002
 30
0.0
 10
237.9721067413464
 20
-570.0000000000001
 30
0.0
 10
237.2659317151801
 20
-569.9999999999995
 30
0.0
 10
235.8089179649002
 20
-569.9999999999993
 30
0.0
 10
235.057256948628
 20
-570.0
 30
0.0
 10
231.1843160534463
 20
-570.0
 30
0.0
 10
227.7195776906732
 20
-570.0000000000001
 30
0.0
 10
220.0771295193431
 20
-569.9999999999999
 30
0.0
 10
215.8995445540894
 20
-570.0000000000005
 30
0.0
 10
206.82684086236
 20
-570.0000000000003
 30
0.0
 10
201.9311788286396
 20
-570.0
 30
0.0
 10
195.3481266110458
 20
-569.9999999999999
 30
0.0
 10
194.0071980479939
 20
-570.0000000000001
 30
0.0
 10
191.293950528563
 20
-570.0000000000002
 30
0.0
 10
189.919925002392
 20
-570.0000000000002
 30
0.0
 10
185.7461879411255
 20
-569.9999999999999
 30
0.0
 10
182.8948562998283
 20
-570.0000000000001
 30
0.0
 10
174.1371928849308
 20
-570.0000000000002
 30
0.0
 10
168.0274209554315
 20
-570.0000000000005
 30
0.0
 10
155.2720812089794
 20
-570.0000000000003
 30
0.0
 10
148.626590149276
 20
-569.9999999999999
 30
0.0
 10
138.2474621137736
 20
-569.9999999999998
 30
0.0
 10
134.7190531754792
 20
-570.0000000000002
 30
0.0
 10
127.5221525284549
 20
-570.0000000000003
 30
0.0
 10
123.8835396689369
 20
-570.0000000000001
 30
0.0
 10
112.8533125289294
 20
-570.0000000000002
 30
0.0
 10
105.3461364341638
 20
-570.0000000000001
 30
0.0
 10
90.0299719845823
 20
-570.0000000000002
 30
0.0
 10
82.2208716011946
 20
-570.0000000000002
 30
0.0
 10
70.27951131487607
 20
-570.0
 30
0.0
 10
66.26102250732195
 20
-569.9999999999999
 30
0.0
 10
60.1753090776396
 20
-569.9999999999998
 30
0.0
 10
58.13706892453592
 20
-569.9999999999999
 30
0.0
 10
54.04102569818473
 20
-569.9999999999999
 30
0.0
 10
51.98038893778592
 20
-570.0000000000002
 30
0.0
 10
41.67683849629407
 20
-570.0
 30
0.0
 10
33.41686118881729
 20
-570.0000000000002
 30
0.0
 10
16.86384675067726
 20
-570.0000000000002
 30
0.0
 10
8.570805039278751
 20
-569.9999999999997
 30
0.0
 10
-8.048350390780113
 20
-569.9999999999995
 30
0.0
 10
-16.37446457508365
 20
-570.0
 30
0.0
 10
-26.80326524074111
 20
-570.0
 30
0.0
 10
-28.89008628982842
 20
-569.9999999999997
 30
0.0
 10
-33.06587481695455
 20
-569.9999999999995
 30
0.0
 10
-35.15230300107194
 20
-569.9999999999999
 30
0.0
 10
-41.38061340464274
 20
-570.0
 30
0.0
 10
-45.5018592142502
 20
-570.0000000000002
 30
0.0
 10
-57.77419450705954
 20
-570.0000000000001
 30
0.0
 10
-65.83417555871644
 20
-570.0000000000002
 30
0.0
 10
-81.7152970843031
 20
-570.0000000000001
 30
0.0
 10
-89.53644018190661
 20
-570.0
 30
0.0
 10
-101.0857719221233
 20
-570.0
 30
0.0
 10
-104.9050980039206
 20
-570.0
 30
0.0
 10
-110.5876559683087
 20
-570.0000000000001
 30
0.0
 10
-112.4761621169895
 20
-569.9999999999997
 30
0.0
 10
-116.227779375979
 20
-569.9999999999998
 30
0.0
 10
-118.0877911291928
 20
-570.0
 30
0.0
 10
-127.3097633285626
 20
-570.0000000000001
 30
0.0
 10
-134.4381679754408
 20
-570.0000000000002
 30
0.0
 10
-148.2079161038243
 20
-570.0
 30
0.0
 10
-154.8494772562037
 20
-570.0000000000001
 30
0.0
 10
-167.6457241925729
 20
-570.0000000000001
 30
0.0
 10
-173.8004183634481
 20
-570.0000000000002
 30
0.0
 10
-181.1782628727438
 20
-570.0000000000005
 30
0.0
 10
-182.6390215683636
 20
-570.0
 30
0.0
 10
-185.5127110048267
 20
-570.0
 30
0.0
 10
-186.9275915821527
 20
-569.9999999999998
 30
0.0
 10
-191.107087297665
 20
-569.9999999999998
 30
0.0
 10
-193.8066062853694
 20
-570.0000000000005
 30
0.0
 10
-201.648794115405
 20
-570.0000000000003
 30
0.0
 10
-206.5357427877078
 20
-570.0000000000001
 30
0.0
 10
-215.6310577665478
 20
-569.9999999999998
 30
0.0
 10
-219.8399799424509
 20
-569.9999999999998
 30
0.0
 10
-225.6357098332136
 20
-570.0
 30
0.0
 10
-227.481153330991
 20
-569.9999999999999
 30
0.0
 10
-230.9950820722168
 20
-569.9999999999999
 30
0.0
 10
-232.6493188092334
 20
-569.9999999999998
 30
0.0
 10
-237.3063873139305
 20
-570.0000000000001
 30
0.0
 10
-240.0066163474135
 20
-569.9999999999994
 30
0.0
 10
-244.6160065124758
 20
-569.9999999999993
 30
0.0
 10
-246.5249507623993
 20
-569.9999999999998
 30
0.0
 10
-248.7879444322878
 20
-570.0000000000001
 30
0.0
 10
-249.4421527696437
 20
-570.0
 30
0.0
 10
-250.2711976656469
 20
-570.0
 30
0.0
 10
-250.522153129525
 20
-570.0000000000002
 30
0.0
 10
-250.9727476504693
 20
-569.9999999999998
 30
0.0
 10
-251.1725228051233
 20
-569.9999999999995
 30
0.0
 10
-251.6924229456686
 20
-569.9999999999997
 30
0.0
 10
-251.9336439671723
 20
-569.9999999999998
 30
0.0
 10
-252.1376568795781
 20
-569.9999999999995
 30
0.0
 10
-252.1793436029646
 20
-570.0
 30
0.0
 10
-252.202300031239
 20
-569.9999999999999
 30
0.0
 10
-252.2027869839289
 20
-570.0000000000006
 30
0.0
 10
-252.2080284044131
 20
-570.0000000000006
 30
0.0
 10
-252.2106316145317
 20
-569.9999999999999
 30
0.0
 10
-252.2132174981534
 20
-570.0
 30
0.0
  0
SPLINE
  5
B5
330
1B
100
AcDbEntity
 67
     1
  8
0
  6
Continuous
 62
     7
370
    25
100
AcDbSpline
210
0.0
220
0.0
230
1.0
 70
    24
 71
     3
 72
     9
 73
     5
 74
     0
 42
0.000000001
 43
0.00000001
 40
0.0
 40
0.0
 40
0.0
 40
0.0
 40
0.2041119825917311
 40
0.9999999999999999
 40
0.9999999999999999
 40
0.9999999999999999
 40
0.9999999999999999
 10
252.5900394418219
 20
-570.0
 30
0.0
 10
252.5907207308451
 20
-570.0
 30
0.0
 10
252.5940585506756
 20
-569.9999999999995
 30
0.0
 10
252.5883249320937
 20
-569.9999999999999
 30
0.0
 10
252.5837616137679
 20
-570.0
 30
0.0
  0
SPLINE
  5
B6
330
1B
100
AcDbEntity
 67
     1
  8
0
  6
Continuous
 62
     8
370
    25
100
AcDbSpline
210
0.0
220
0.0
230
1.0
 70
     8
 71
     3
 72
     9
 73
     5
 74
     0
 42
0.000000001
 43
0.00000001
 40
0.0
 40
0.0
 40
0.0
 40
0.0
 40
0.6441801838554276
 40
1.0
 40
1.0
 40
1.0
 40
1.0
 10
270.403797287061
 20
-558.3129300239626
 30
0.0
 10
270.4628541639072
 20
-558.4990843244577
 30
0.0
 10
270.5545317384839
 20
-558.7880629443538
 30
0.0
 10
270.5438466643394
 20
-558.7548871284909
 30
0.0
 10
270.5400447032217
 20
-558.7430825157901
 30
0.0
  0
SPLINE
  5
B7
330
1B
100
AcDbEntity
 67
     1
  8
0
  6
Continuous
 62
     8
370
    25
100
AcDbSpline
210
0.0
220
0.0
230
1.0
 70
     8
 71
     3
 72
    10
 73
     6
 74
     0
 42
0.000000001
 43
0.00000001
 40
0.0
 40
0.0
 40
0.0
 40
0.0
 40
0.5
 40
0.5
 40
1.0
 40
1.0
 40
1.0
 40
1.0
 10
-270.5414403842229
 20
-558.7479083331403
 30
0.0
 10
-270.5597585082498
 20
-558.8114011422066
 30
0.0
 10
-270.5593534443779
 20
-558.80984497712
 30
0.0
 10
-270.5206682166137
 20
-558.6760733891682
 30
0.0
 10
-270.4838584332942
 20
-558.5458571468168
 30
0.0
 10
-270.4037501184783
 20
-558.3127927898979
 30
0.0
  0
LINE
  5
B8
330
1B
100
AcDbEntity
 67
     1
  8
0
  6
Continuous
 62
     7
370
    25
100
AcDbLine
 10
-270.4217907143
 20
-558.343977608
 30
0.0
 11
-269.5181427111
 21
-560.0824316884
 31
0.0
  0
LINE
  5
B9
330
1B
100
AcDbEntity
 67
     1
  8
0
  6
Continuous
 62
     7
370
    25
100
AcDbLine
 10
269.4928114512
 20
-560.1259185847
 30
0.0
 11
270.421309738
 21
-558.3453006727
 31
0.0
  0
LINE
  5
BA
330
1B
100
AcDbEntity
 67
     1
  8
0
  6
Continuous
 62
     7
370
    25
100
AcDbLine
 10
270.3982813481
 20
-558.296927902
 30
0.0
 11
270.4037972871
 21
-558.312930024
 31
0.0
  0
LINE
  5
BB
330
1B
100
AcDbEntity
 67
     1
  8
0
  6
Continuous
 62
     7
370
    25
100
AcDbLine
 10
-270.4037501185
 20
-558.3127927899
 30
0.0
 11
-270.3982813481
 21
-558.296927902
 31
0.0
  0
LINE
  5
BC
330
1B
100
AcDbEntity
 67
     1
  8
0
  6
Continuous
 62
     7
370
    25
100
AcDbLine
 10
-400.0
 20
0.0
 30
0.0
 11
400.0
 21
0.0
 31
0.0
  0
ARC
  5
BD
330
1B
100
AcDbEntity
 67
     1
  8
0
  6
Continuous
 62
     7
370
    25
100
AcDbCircle
 10
-252.2406312943
 20
-550.0000575018
 30
0.0
 40
19.99994250654902
100
AcDbArc
 50
204.6468825509
 51
269.9627226495
  0
ARC
  5
BE
330
1B
100
AcDbEntity
 67
     1
  8
0
  6
Continuous
 62
     7
370
    25
100
AcDbCircle
 10
-252.5918037126
 20
-550.0
 30
0.0
 40
19.99999999999966
100
AcDbArc
 50
205.9729735682
 51
269.9999999997
  0
ARC
  5
BF
330
1B
100
AcDbEntity
 67
     1
  8
0
  6
Continuous
 62
     7
370
    25
100
AcDbCircle
 10
252.2405071793
 20
-550.0000575224
 30
0.0
 40
19.9999424861144
100
AcDbArc
 50
270.0377705313
 51
335.3572937639
  0
ARC
  5
C0
330
1B
100
AcDbEntity
 67
     1
  8
0
  6
Continuous
 62
     7
370
    25
100
AcDbCircle
 10
252.5918037126
 20
-550.0
 30
0.0
 40
20.00000000000023
100
AcDbArc
 50
269.9999999988
 51
334.0260325559
  0
ARC
  5
C1
330
1B
100
AcDbEntity
 67
     1
  8
0
  6
Continuous
 62
     7
370
    25
100
AcDbCircle
 10
252.2133130986
 20
-550.0000632925
 30
0.0
 40
19.9999367075205
100
AcDbArc
 50
270.0000408559
 51
335.4400801539
  0
ARC
  5
C2
330
1B
100
AcDbEntity
 67
     1
  8
0
  6
Continuous
 62
     7
370
    25
100
AcDbCircle
 10
-252.2132032312
 20
-550.0000633159
 30
0.0
 40
19.99993668409169
100
AcDbArc
 50
204.5594875484
 51
269.9999591279
  0
VIEWPORT
  5
115
330
1B
100
AcDbEntity
 67
     1
  8
0
100
AcDbViewport
 10
0.0
 20
0.0
 30
0.0
 40
205.6
 41
156.0
 68
     1
 69
     1
 12
0.0
 22
0.0
 13
0.0
 23
0.0
 14
10.0
 24
10.0
 15
10.0
 25
10.0
 16
0.0
 26
0.0
 36
1.0
 17
0.0
 27
0.0
 37
0.0
 42
50.0
 43
0.0
 44
0.0
 45
1300.2023346304
 50
0.0
 51
0.0
 72
   100
 90
   557152
  1

281
     0
 71
     1
 74
     0
110
0.0
120
0.0
130
0.0
111
1.0
121
0.0
131
0.0
112
0.0
122
1.0
132
0.0
 79
     0
146
0.0
  0
ENDSEC
  0
SECTION
  2
OBJECTS
  0
DICTIONARY
  5
C
330
0
100
AcDbDictionary
281
     1
  3
ACAD_GROUP
350
D
  3
ACAD_LAYOUT
350
1A
  3
ACAD_MLINESTYLE
350
17
  3
ACAD_PLOTSETTINGS
350
19
  3
ACAD_PLOTSTYLENAME
350
E
  3
ACAD_SCALELIST
350
47
  0
DICTIONARY
  5
D
102
{ACAD_REACTORS
330
C
102
}
330
C
100
AcDbDictionary
281
     1
  0
DICTIONARY
  5
1A
102
{ACAD_REACTORS
330
C
102
}
330
C
100
AcDbDictionary
281
     1
  3
_Front
350
26
  3
_Isometric
350
DB
  3
_Left
350
1E
  3
Model
350
22
  0
DICTIONARY
  5
17
102
{ACAD_REACTORS
330
C
102
}
330
C
100
AcDbDictionary
281
     1
  3
Standard
350
18
  0
DICTIONARY
  5
19
102
{ACAD_REACTORS
330
C
102
}
330
C
100
AcDbDictionary
281
     1
  0
ACDBDICTIONARYWDFLT
  5
E
102
{ACAD_REACTORS
330
C
102
}
330
C
100
AcDbDictionary
281
     1
  3
Normal
350
F
100
AcDbDictionaryWithDefault
340
F
  0
DICTIONARY
  5
47
102
{ACAD_REACTORS
330
C
102
}
330
C
100
AcDbDictionary
281
     1
  3
A0
350
48
  3
A1
350
49
  3
A2
350
4A
  3
A3
350
4B
  3
A4
350
4C
  3
A5
350
4D
  3
A6
350
4E
  3
A7
350
4F
  3
A8
350
50
  3
A9
350
51
  3
B0
350
52
  3
B1
350
53
  3
B2
350
54
  3
B3
350
55
  3
B4
350
56
  3
B5
350
57
  3
B6
350
58
  3
B7
350
59
  3
B8
350
5A
  3
B9
350
5B
  3
C0
350
5C
  3
C1
350
5D
  3
C2
350
5E
  3
C3
350
5F
  3
C4
350
60
  3
C5
350
61
  3
C6
350
62
  3
C7
350
63
  3
C8
350
64
  3
C9
350
65
  3
D0
350
66
  3
D1
350
67
  3
D2
350
68
  0
LAYOUT
  5
26
102
{ACAD_REACTORS
330
1A
102
}
330
1A
100
AcDbPlotSettings
  1

  2
none_device
  4
ISO_A4_(210.00_x_297.00_MM)
  6

 40
7.5
 41
20.0
 42
7.5
 43
20.0
 44
210.0
 45
297.0
 46
0.0
 47
0.0
 48
0.0
 49
0.0
140
0.0
141
0.0
142
1.0
143
3.1128404669
 70
   688
 72
     1
 73
     1
 74
     1
  7

 75
     0
147
0.32125
148
400.0
149
570.0
100
AcDbLayout
  1
_Front
 70
     1
 71
     2
 10
0.0
 20
0.0
 11
0.0
 21
0.0
 12
0.0
 22
0.0
 32
0.0
 14
0.0
 24
0.0
 34
0.0
 15
0.0
 25
0.0
 35
0.0
146
0.0
 13
0.0
 23
0.0
 33
0.0
 16
1.0
 26
0.0
 36
0.0
 17
0.0
 27
1.0
 37
0.0
 76
     0
330
23
331
117
  0
LAYOUT
  5
DB
102
{ACAD_REACTORS
330
1A
102
}
330
1A
100
AcDbPlotSettings
  1

  2
none_device
  4
ISO_A4_(210.00_x_297.00_MM)
  6

 40
7.5
 41
20.0
 42
7.5
 43
20.0
 44
210.0
 45
297.0
 46
0.0
 47
0.0
 48
0.0
 49
0.0
140
0.0
141
0.0
142
1.0
143
3.1128404669
 70
   688
 72
     1
 73
     1
 74
     1
  7

 75
     0
147
0.32125
148
400.0
149
570.0
100
AcDbLayout
  1
_Isometric
 70
     1
 71
     3
 10
0.0
 20
0.0
 11
0.0
 21
0.0
 12
0.0
 22
0.0
 32
0.0
 14
0.0
 24
0.0
 34
0.0
 15
0.0
 25
0.0
 35
0.0
146
0.0
 13
0.0
 23
0.0
 33
0.0
 16
1.0
 26
0.0
 36
0.0
 17
0.0
 27
1.0
 37
0.0
 76
     0
330
DA
331
119
  0
LAYOUT
  5
1E
102
{ACAD_REACTORS
330
1A
102
}
330
1A
100
AcDbPlotSettings
  1

  2
none_device
  4
ISO_A4_(210.00_x_297.00_MM)
  6

 40
7.5
 41
20.0
 42
7.5
 43
20.0
 44
210.0
 45
297.0
 46
0.0
 47
0.0
 48
0.0
 49
0.0
140
0.0
141
0.0
142
1.0
143
3.1128404669
 70
   688
 72
     1
 73
     1
 74
     1
  7

 75
     0
147
0.32125
148
400.0
149
570.0
100
AcDbLayout
  1
_Left
 70
     1
 71
     1
 10
-462.2568093385
 20
-593.3463035019
 11
462.2568093385
 21
60.3501945525
 12
0.0
 22
0.0
 32
0.0
 14
-400.0
 24
-570.0
 34
0.0
 15
400.0
 25
0.0
 35
0.0
146
0.0
 13
0.0
 23
0.0
 33
0.0
 16
1.0
 26
0.0
 36
0.0
 17
0.0
 27
1.0
 37
0.0
 76
     0
330
1B
331
115
  0
LAYOUT
  5
22
102
{ACAD_REACTORS
330
1A
102
}
330
1A
100
AcDbPlotSettings
  1

  2
none_device
  4
ANSI_A_(11.00_x_8.50_Inches)
  6

 40
6.35
 41
19.05
 42
6.35000508
 43
19.05000254
 44
279.4
 45
215.9
 46
133.34999746
 47
88.89999873
 48
0.0
 49
0.0
140
0.0
141
0.0
142
0.0064821429
143
1.0
 70
  1696
 72
     0
 73
     0
 74
     0
  7

 75
     0
147
0.0179189148
148
-1300.4909072572
149
0.0
100
AcDbLayout
  1
Model
 70
     1
 71
     0
 10
0.0
 20
0.0
 11
420.0
 21
297.0
 12
0.0
 22
0.0
 32
0.0
 14
-840.0
 24
-400.0
 34
0.0
 15
840.0
 25
400.0
 35
0.0
146
0.0
 13
0.0
 23
0.0
 33
0.0
 16
1.0
 26
0.0
 36
0.0
 17
0.0
 27
1.0
 37
0.0
 76
     0
330
1F
331
29
  0
MLINESTYLE
  5
18
102
{ACAD_REACTORS
330
17
102
}
330
17
100
AcDbMlineStyle
  2
Standard
 70
     0
  3

 62
   256
 51
90.0
 52
90.0
 71
     2
 49
0.5
 62
   256
  6
BYLAYER
 49
-0.5
 62
   256
  6
BYLAYER
  0
ACDBPLACEHOLDER
  5
F
102
{ACAD_REACTORS
330
E
102
}
330
E
  0
SCALE
  5
48
102
{ACAD_REACTORS
330
47
102
}
330
47
100
AcDbScale
 70
     0
300
1:1
140
1.0
141
1.0
290
     1
  0
SCALE
  5
49
102
{ACAD_REACTORS
330
47
102
}
330
47
100
AcDbScale
 70
     0
300
1:2
140
1.0
141
2.0
290
     0
  0
SCALE
  5
4A
102
{ACAD_REACTORS
330
47
102
}
330
47
100
AcDbScale
 70
     0
300
1:4
140
1.0
141
4.0
290
     0
  0
SCALE
  5
4B
102
{ACAD_REACTORS
330
47
102
}
330
47
100
AcDbScale
 70
     0
300
1:5
140
1.0
141
5.0
290
     0
  0
SCALE
  5
4C
102
{ACAD_REACTORS
330
47
102
}
330
47
100
AcDbScale
 70
     0
300
1:8
140
1.0
141
8.0
290
     0
  0
SCALE
  5
4D
102
{ACAD_REACTORS
330
47
102
}
330
47
100
AcDbScale
 70
     0
300
1:10
140
1.0
141
10.0
290
     0
  0
SCALE
  5
4E
102
{ACAD_REACTORS
330
47
102
}
330
47
100
AcDbScale
 70
     0
300
1:16
140
1.0
141
16.0
290
     0
  0
SCALE
  5
4F
102
{ACAD_REACTORS
330
47
102
}
330
47
100
AcDbScale
 70
     0
300
1:20
140
1.0
141
20.0
290
     0
  0
SCALE
  5
50
102
{ACAD_REACTORS
330
47
102
}
330
47
100
AcDbScale
 70
     0
300
1:30
140
1.0
141
30.0
290
     0
  0
SCALE
  5
51
102
{ACAD_REACTORS
330
47
102
}
330
47
100
AcDbScale
 70
     0
300
1:40
140
1.0
141
40.0
290
     0
  0
SCALE
  5
52
102
{ACAD_REACTORS
330
47
102
}
330
47
100
AcDbScale
 70
     0
300
1:50
140
1.0
141
50.0
290
     0
  0
SCALE
  5
53
102
{ACAD_REACTORS
330
47
102
}
330
47
100
AcDbScale
 70
     0
300
1:100
140
1.0
141
100.0
290
     0
  0
SCALE
  5
54
102
{ACAD_REACTORS
330
47
102
}
330
47
100
AcDbScale
 70
     0
300
2:1
140
2.0
141
1.0
290
     0
  0
SCALE
  5
55
102
{ACAD_REACTORS
330
47
102
}
330
47
100
AcDbScale
 70
     0
300
4:1
140
4.0
141
1.0
290
     0
  0
SCALE
  5
56
102
{ACAD_REACTORS
330
47
102
}
330
47
100
AcDbScale
 70
     0
300
8:1
140
8.0
141
1.0
290
     0
  0
SCALE
  5
57
102
{ACAD_REACTORS
330
47
102
}
330
47
100
AcDbScale
 70
     0
300
10:1
140
10.0
141
1.0
290
     0
  0
SCALE
  5
58
102
{ACAD_REACTORS
330
47
102
}
330
47
100
AcDbScale
 70
     0
300
100:1
140
100.0
141
1.0
290
     0
  0
SCALE
  5
59
102
{ACAD_REACTORS
330
47
102
}
330
47
100
AcDbScale
 70
     0
300
1/128" = 1'-0"
140
0.0078125
141
12.0
290
     0
  0
SCALE
  5
5A
102
{ACAD_REACTORS
330
47
102
}
330
47
100
AcDbScale
 70
     0
300
1/64" = 1'-0"
140
0.015625
141
12.0
290
     0
  0
SCALE
  5
5B
102
{ACAD_REACTORS
330
47
102
}
330
47
100
AcDbScale
 70
     0
300
1/32" = 1'-0"
140
0.03125
141
12.0
290
     0
  0
SCALE
  5
5C
102
{ACAD_REACTORS
330
47
102
}
330
47
100
AcDbScale
 70
     0
300
1/16" = 1'-0"
140
0.0625
141
12.0
290
     0
  0
SCALE
  5
5D
102
{ACAD_REACTORS
330
47
102
}
330
47
100
AcDbScale
 70
     0
300
3/32" = 1'-0"
140
0.09375
141
12.0
290
     0
  0
SCALE
  5
5E
102
{ACAD_REACTORS
330
47
102
}
330
47
100
AcDbScale
 70
     0
300
1/8" = 1'-0"
140
0.125
141
12.0
290
     0
  0
SCALE
  5
5F
102
{ACAD_REACTORS
330
47
102
}
330
47
100
AcDbScale
 70
     0
300
3/16" = 1'-0"
140
0.1875
141
12.0
290
     0
  0
SCALE
  5
60
102
{ACAD_REACTORS
330
47
102
}
330
47
100
AcDbScale
 70
     0
300
1/4" = 1'-0"
140
0.25
141
12.0
290
     0
  0
SCALE
  5
61
102
{ACAD_REACTORS
330
47
102
}
330
47
100
AcDbScale
 70
     0
300
3/8" = 1'-0"
140
0.375
141
12.0
290
     0
  0
SCALE
  5
62
102
{ACAD_REACTORS
330
47
102
}
330
47
100
AcDbScale
 70
     0
300
1/2" = 1'-0"
140
0.5
141
12.0
290
     0
  0
SCALE
  5
63
102
{ACAD_REACTORS
330
47
102
}
330
47
100
AcDbScale
 70
     0
300
3/4" = 1'-0"
140
0.75
141
12.0
290
     0
  0
SCALE
  5
64
102
{ACAD_REACTORS
330
47
102
}
330
47
100
AcDbScale
 70
     0
300
1" = 1'-0"
140
1.0
141
12.0
290
     0
  0
SCALE
  5
65
102
{ACAD_REACTORS
330
47
102
}
330
47
100
AcDbScale
 70
     0
300
1-1/2" = 1'-0"
140
1.5
141
12.0
290
     0
  0
SCALE
  5
66
102
{ACAD_REACTORS
330
47
102
}
330
47
100
AcDbScale
 70
     0
300
3" = 1'-0"
140
3.0
141
12.0
290
     0
  0
SCALE
  5
67
102
{ACAD_REACTORS
330
47
102
}
330
47
100
AcDbScale
 70
     0
300
6" = 1'-0"
140
6.0
141
12.0
290
     0
  0
SCALE
  5
68
102
{ACAD_REACTORS
330
47
102
}
330
47
100
AcDbScale
 70
     0
300
1'-0" = 1'-0"
140
12.0
141
12.0
290
     0
  0
ENDSEC
  0
EOF
